  0
SECTION
  2
HEADER
  9
$ACADVER
  1
AC1027
  9
$ACADMAINTVER
 70
   105
  9
$DWGCODEPAGE
  3
ANSI_1252
  9
$REQUIREDVERSIONS
160
                 0
  9
$INSBASE
 10
0.0
 20
0.0
 30
0.0
  9
$EXTMIN
 10
0.0
 20
0.0
 30
0.0
  9
$EXTMAX
 10
594.0
 20
420.0
 30
0.0
  9
$LIMMIN
 10
0.0
 20
0.0
  9
$LIMMAX
 10
594.0
 20
420.0
  9
$ORTHOMODE
 70
     0
  9
$REGENMODE
 70
     1
  9
$FILLMODE
 70
     1
  9
$QTEXTMODE
 70
     0
  9
$MIRRTEXT
 70
     1
  9
$LTSCALE
 40
1.0
  9
$ATTMODE
 70
     1
  9
$TEXTSIZE
 40
3.5
  9
$TRACEWID
 40
1.0
  9
$TEXTSTYLE
  7
Standard
  9
$CLAYER
  8
0
  9
$CELTYPE
  6
ByLayer
  9
$CECOLOR
 62
   256
  9
$CELTSCALE
 40
1.0
  9
$DISPSILH
 70
     0
  9
$DIMSCALE
 40
1.0
  9
$DIMASZ
 40
3.302
  9
$DIMEXO
 40
1.0
  9
$DIMDLI
 40
3.75
  9
$DIMRND
 40
0.0
  9
$DIMDLE
 40
0.0
  9
$DIMEXE
 40
1.0
  9
$DIMTP
 40
0.0
  9
$DIMTM
 40
0.0
  9
$DIMTXT
 40
3.5
  9
$DIMCEN
 40
2.5
  9
$DIMTSZ
 40
0.0
  9
$DIMTOL
 70
     0
  9
$DIMLIM
 70
     0
  9
$DIMTIH
 70
     1
  9
$DIMTOH
 70
     1
  9
$DIMSE1
 70
     0
  9
$DIMSE2
 70
     0
  9
$DIMTAD
 70
     1
  9
$DIMZIN
 70
     0
  9
$DIMBLK
  1

  9
$DIMASO
 70
     1
  9
$DIMSHO
 70
     1
  9
$DIMPOST
  1

  9
$DIMAPOST
  1

  9
$DIMALT
 70
     0
  9
$DIMALTD
 70
     3
  9
$DIMALTF
 40
0.0393700787
  9
$DIMLFAC
 40
10.0
  9
$DIMTOFL
 70
     1
  9
$DIMTVP
 40
0.0
  9
$DIMTIX
 70
     0
  9
$DIMSOXD
 70
     0
  9
$DIMSAH
 70
     0
  9
$DIMBLK1
  1

  9
$DIMBLK2
  1

  9
$DIMSTYLE
  2
ISO-25
  9
$DIMCLRD
 70
     0
  9
$DIMCLRE
 70
     0
  9
$DIMCLRT
 70
     0
  9
$DIMTFAC
 40
1.0
  9
$DIMGAP
 40
1.524
  9
$DIMJUST
 70
     0
  9
$DIMSD1
 70
     0
  9
$DIMSD2
 70
     0
  9
$DIMTOLJ
 70
     0
  9
$DIMTZIN
 70
     0
  9
$DIMALTZ
 70
     0
  9
$DIMALTTZ
 70
     0
  9
$DIMUPT
 70
     0
  9
$DIMDEC
 70
     2
  9
$DIMTDEC
 70
     2
  9
$DIMALTU
 70
     2
  9
$DIMALTTD
 70
     3
  9
$DIMTXSTY
  7
Standard
  9
$DIMAUNIT
 70
     0
  9
$DIMADEC
 70
     2
  9
$DIMALTRND
 40
0.0
  9
$DIMAZIN
 70
     0
  9
$DIMDSEP
 70
    44
  9
$DIMATFIT
 70
     3
  9
$DIMFRAC
 70
     0
  9
$DIMLDRBLK
  1

  9
$DIMLUNIT
 70
     2
  9
$DIMLWD
 70
    -2
  9
$DIMLWE
 70
    -2
  9
$DIMTMOVE
 70
     0
  9
$DIMFXL
 40
1.0
  9
$DIMFXLON
 70
     0
  9
$DIMJOGANG
 40
0.7853981634
  9
$DIMTFILL
 70
     0
  9
$DIMTFILLCLR
 70
     0
  9
$DIMARCSYM
 70
     0
  9
$DIMLTYPE
  6

  9
$DIMLTEX1
  6

  9
$DIMLTEX2
  6

  9
$DIMTXTDIRECTION
 70
     0
  9
$LUNITS
 70
     2
  9
$LUPREC
 70
     2
  9
$SKETCHINC
 40
1.0
  9
$FILLETRAD
 40
10.0
  9
$AUNITS
 70
     0
  9
$AUPREC
 70
     2
  9
$MENU
  1
.
  9
$ELEVATION
 40
0.0
  9
$PELEVATION
 40
0.0
  9
$THICKNESS
 40
0.0
  9
$LIMCHECK
 70
     0
  9
$CHAMFERA
 40
0.0
  9
$CHAMFERB
 40
0.0
  9
$CHAMFERC
 40
0.0
  9
$CHAMFERD
 40
0.0
  9
$SKPOLY
 70
     0
  9
$TDCREATE
 40
2459219.429900602
  9
$TDUCREATE
 40
2459219.388233935
  9
$TDUPDATE
 40
2459219.429904155
  9
$TDUUPDATE
 40
2459219.388237488
  9
$TDINDWG
 40
0.0000000116
  9
$TDUSRTIMER
 40
0.0000000116
  9
$USRTIMER
 70
     1
  9
$ANGBASE
 50
0.0
  9
$ANGDIR
 70
     0
  9
$PDMODE
 70
     0
  9
$PDSIZE
 40
-1.0
  9
$PLINEWID
 40
0.0
  9
$SPLFRAME
 70
     0
  9
$SPLINETYPE
 70
     6
  9
$SPLINESEGS
 70
     8
  9
$HANDSEED
  5
460
  9
$SURFTAB1
 70
     6
  9
$SURFTAB2
 70
     6
  9
$SURFTYPE
 70
     6
  9
$SURFU
 70
     6
  9
$SURFV
 70
     6
  9
$UCSBASE
  2

  9
$UCSNAME
  2

  9
$UCSORG
 10
0.0
 20
0.0
 30
0.0
  9
$UCSXDIR
 10
1.0
 20
0.0
 30
0.0
  9
$UCSYDIR
 10
0.0
 20
1.0
 30
0.0
  9
$UCSORTHOREF
  2

  9
$UCSORTHOVIEW
 70
     0
  9
$UCSORGTOP
 10
0.0
 20
0.0
 30
0.0
  9
$UCSORGBOTTOM
 10
0.0
 20
0.0
 30
0.0
  9
$UCSORGLEFT
 10
0.0
 20
0.0
 30
0.0
  9
$UCSORGRIGHT
 10
0.0
 20
0.0
 30
0.0
  9
$UCSORGFRONT
 10
0.0
 20
0.0
 30
0.0
  9
$UCSORGBACK
 10
0.0
 20
0.0
 30
0.0
  9
$PUCSBASE
  2

  9
$PUCSNAME
  2

  9
$PUCSORG
 10
0.0
 20
0.0
 30
0.0
  9
$PUCSXDIR
 10
1.0
 20
0.0
 30
0.0
  9
$PUCSYDIR
 10
0.0
 20
1.0
 30
0.0
  9
$PUCSORTHOREF
  2

  9
$PUCSORTHOVIEW
 70
     0
  9
$PUCSORGTOP
 10
0.0
 20
0.0
 30
0.0
  9
$PUCSORGBOTTOM
 10
0.0
 20
0.0
 30
0.0
  9
$PUCSORGLEFT
 10
0.0
 20
0.0
 30
0.0
  9
$PUCSORGRIGHT
 10
0.0
 20
0.0
 30
0.0
  9
$PUCSORGFRONT
 10
0.0
 20
0.0
 30
0.0
  9
$PUCSORGBACK
 10
0.0
 20
0.0
 30
0.0
  9
$USERI1
 70
     0
  9
$USERI2
 70
     0
  9
$USERI3
 70
     0
  9
$USERI4
 70
     0
  9
$USERI5
 70
     0
  9
$USERR1
 40
0.0
  9
$USERR2
 40
0.0
  9
$USERR3
 40
0.0
  9
$USERR4
 40
0.0
  9
$USERR5
 40
0.0
  9
$WORLDVIEW
 70
     1
  9
$SHADEDGE
 70
     3
  9
$SHADEDIF
 70
    70
  9
$TILEMODE
 70
     1
  9
$MAXACTVP
 70
    64
  9
$PINSBASE
 10
0.0
 20
0.0
 30
0.0
  9
$PLIMCHECK
 70
     0
  9
$PEXTMIN
 10
1.0000000000E+20
 20
1.0000000000E+20
 30
1.0000000000E+20
  9
$PEXTMAX
 10
-1.0000000000E+20
 20
-1.0000000000E+20
 30
-1.0000000000E+20
  9
$PLIMMIN
 10
0.0
 20
0.0
  9
$PLIMMAX
 10
420.0
 20
297.0
  9
$UNITMODE
 70
     0
  9
$VISRETAIN
 70
     1
  9
$PLINEGEN
 70
     0
  9
$PSLTSCALE
 70
     1
  9
$TREEDEPTH
 70
  3020
  9
$CMLSTYLE
  2
Standard
  9
$CMLJUST
 70
     0
  9
$CMLSCALE
 40
20.0
  9
$PROXYGRAPHICS
 70
     1
  9
$MEASUREMENT
 70
     1
  9
$CELWEIGHT
370
    -1
  9
$ENDCAPS
280
     0
  9
$JOINSTYLE
280
     0
  9
$LWDISPLAY
290
     1
  9
$INSUNITS
 70
     4
  9
$HYPERLINKBASE
  1

  9
$STYLESHEET
  1

  9
$XEDIT
290
     1
  9
$CEPSNTYPE
380
     0
  9
$PSTYLEMODE
290
     1
  9
$FINGERPRINTGUID
  2
{6AA740CD-393C-4C20-92B8-4E825E608BB7}
  9
$VERSIONGUID
  2
{FAEB1C32-E019-11D5-929B-00C0DF256EC4}
  9
$EXTNAMES
290
     1
  9
$PSVPSCALE
 40
0.0
  9
$OLESTARTUP
290
     0
  9
$SORTENTS
280
   127
  9
$INDEXCTL
280
     0
  9
$HIDETEXT
280
     1
  9
$XCLIPFRAME
280
     2
  9
$HALOGAP
280
     0
  9
$OBSCOLOR
 70
   257
  9
$OBSLTYPE
280
     0
  9
$INTERSECTIONDISPLAY
280
     0
  9
$INTERSECTIONCOLOR
 70
   257
  9
$DIMASSOC
280
     2
  9
$PROJECTNAME
  1

  9
$CAMERADISPLAY
290
     0
  9
$LENSLENGTH
 40
50.0
  9
$CAMERAHEIGHT
 40
0.0
  9
$STEPSPERSEC
 40
2.0
  9
$STEPSIZE
 40
6.0
  9
$3DDWFPREC
 40
2.0
  9
$PSOLWIDTH
 40
5.0
  9
$PSOLHEIGHT
 40
80.0
  9
$LOFTANG1
 40
1.5707963268
  9
$LOFTANG2
 40
1.5707963268
  9
$LOFTMAG1
 40
0.0
  9
$LOFTMAG2
 40
0.0
  9
$LOFTPARAM
 70
     7
  9
$LOFTNORMALS
280
     1
  9
$LATITUDE
 40
37.795
  9
$LONGITUDE
 40
-122.394
  9
$NORTHDIRECTION
 40
0.0
  9
$TIMEZONE
 70
 -8000
  9
$LIGHTGLYPHDISPLAY
280
     1
  9
$TILEMODELIGHTSYNCH
280
     1
  9
$CMATERIAL
347
44
  9
$SOLIDHIST
280
     0
  9
$SHOWHIST
280
     1
  9
$DWFFRAME
280
     2
  9
$DGNFRAME
280
     2
  9
$REALWORLDSCALE
290
     1
  9
$INTERFERECOLOR
 62
   256
  9
$CSHADOW
280
     0
  9
$SHADOWPLANELOCATION
 40
0.0
  0
ENDSEC
  0
SECTION
  2
CLASSES
  0
CLASS
  1
ACDBDICTIONARYWDFLT
  2
AcDbDictionaryWithDefault
  3
ObjectDBX Classes
 90
        0
 91
        4
280
     0
281
     0
  0
CLASS
  1
VISUALSTYLE
  2
AcDbVisualStyle
  3
ObjectDBX Classes
 90
     4095
 91
        4
280
     0
281
     0
  0
CLASS
  1
MATERIAL
  2
AcDbMaterial
  3
ObjectDBX Classes
 90
     1153
 91
        4
280
     0
281
     0
  0
CLASS
  1
SCALE
  2
AcDbScale
  3
ObjectDBX Classes
 90
     1153
 91
        4
280
     0
281
     0
  0
CLASS
  1
TABLESTYLE
  2
AcDbTableStyle
  3
ObjectDBX Classes
 90
     4095
 91
        4
280
     0
281
     0
  0
CLASS
  1
MLEADERSTYLE
  2
AcDbMLeaderStyle
  3
ACDB_MLEADERSTYLE_CLASS
 90
     4095
 91
        4
280
     0
281
     0
  0
CLASS
  1
SUN
  2
AcDbSun
  3
SCENEOE
 90
     1153
 91
        4
280
     0
281
     0
  0
CLASS
  1
DICTIONARYVAR
  2
AcDbDictionaryVar
  3
ObjectDBX Classes
 90
        0
 91
        4
280
     0
281
     0
  0
CLASS
  1
CELLSTYLEMAP
  2
AcDbCellStyleMap
  3
ObjectDBX Classes
 90
     1152
 91
        4
280
     0
281
     0
  0
ENDSEC
  0
SECTION
  2
TABLES
  0
TABLE
  2
VPORT
  5
8
330
0
100
AcDbSymbolTable
 70
     1
  0
VPORT
  5
29
330
8
100
AcDbSymbolTableRecord
100
AcDbViewportTableRecord
  2
*Active
 70
     0
 10
0.0
 20
0.0
 11
1.0
 21
1.0
 12
297.0
 22
210.0
 13
0.0
 23
0.0
 14
10.0
 24
10.0
 15
10.0
 25
10.0
 16
0.0
 26
0.0
 36
1.0
 17
0.0
 27
0.0
 37
0.0
 40
420.0
 41
1.4142857143
 42
50.0
 43
0.0
 44
0.0
 50
0.0
 51
0.0
 71
     0
 72
  2000
 73
     1
 74
     3
 75
     0
 76
     0
 77
     0
 78
     0
281
     0
 65
     1
110
0.0
120
0.0
130
0.0
111
1.0
121
0.0
131
0.0
112
0.0
122
1.0
132
0.0
 79
     0
146
0.0
348
2F
 60
     3
 61
     5
292
     1
282
     1
141
0.0
142
0.0
 63
   250
361
6D
  0
ENDTAB
  0
TABLE
  2
LTYPE
  5
5
330
0
100
AcDbSymbolTable
 70
     6
  0
LTYPE
  5
14
330
5
100
AcDbSymbolTableRecord
100
AcDbLinetypeTableRecord
  2
ByBlock
 70
     0
  3

 72
    65
 73
     0
 40
0.0
  0
LTYPE
  5
15
330
5
100
AcDbSymbolTableRecord
100
AcDbLinetypeTableRecord
  2
ByLayer
 70
     0
  3

 72
    65
 73
     0
 40
0.0
  0
LTYPE
  5
16
330
5
100
AcDbSymbolTableRecord
100
AcDbLinetypeTableRecord
  2
Continuous
 70
     0
  3
Solid line
 72
    65
 73
     0
 40
0.0
  0
LTYPE
  5
6E
330
5
100
AcDbSymbolTableRecord
100
AcDbLinetypeTableRecord
  2
HIDDEN
 70
     0
  3
Hidden __ __ __ __ __ __ __ __ __ __ __ __ __ __
 72
    65
 73
     2
 40
1.905
 49
1.27
 74
     0
 49
-0.635
 74
     0
  0
LTYPE
  5
6F
330
5
100
AcDbSymbolTableRecord
100
AcDbLinetypeTableRecord
  2
PHANTOM
 70
     0
  3
Phantom ______  __  __  ______  __  __  ______
 72
    65
 73
     6
 40
12.7
 49
6.35
 74
     0
 49
-1.27
 74
     0
 49
1.27
 74
     0
 49
-1.27
 74
     0
 49
1.27
 74
     0
 49
-1.27
 74
     0
  0
LTYPE
  5
70
330
5
100
AcDbSymbolTableRecord
100
AcDbLinetypeTableRecord
  2
CENTER
 70
     0
  3
Center ____ _ ____ _ ____ _ ____ _ ____ _ ____
 72
    65
 73
     4
 40
10.16
 49
6.35
 74
     0
 49
-1.27
 74
     0
 49
1.27
 74
     0
 49
-1.27
 74
     0
  0
LTYPE
  5
71
330
5
100
AcDbSymbolTableRecord
100
AcDbLinetypeTableRecord
  2
CENTERX2
 70
     0
  3
Center (2x) ________  __  ________  __  _____
 72
    65
 73
     4
 40
20.32
 49
12.7
 74
     0
 49
-2.54
 74
     0
 49
2.54
 74
     0
 49
-2.54
 74
     0
  0
LTYPE
  5
72
330
5
100
AcDbSymbolTableRecord
100
AcDbLinetypeTableRecord
  2
DOT2
 70
     0
  3
Dot (.5x) ........................................
 72
    65
 73
     2
 40
0.635
 49
0.0
 74
     0
 49
-0.635
 74
     0
  0
ENDTAB
  0
TABLE
  2
LAYER
  5
2
330
0
100
AcDbSymbolTable
 70
    37
  0
LAYER
  5
10
330
2
100
AcDbSymbolTableRecord
100
AcDbLayerTableRecord
  2
0
 70
     0
 62
     7
  6
Continuous
370
    -3
390
F
347
46
348
0
  0
LAYER
  5
73
330
2
100
AcDbSymbolTableRecord
100
AcDbLayerTableRecord
  2
SLD-0
 70
     0
 62
     7
  6
Continuous
370
    -3
390
F
347
46
348
0
  0
LAYER
  5
74
330
2
100
AcDbSymbolTableRecord
100
AcDbLayerTableRecord
  2
RAHMEN025
 70
     0
 62
     7
  6
Continuous
370
    -3
390
F
347
46
348
0
  0
LAYER
  5
75
330
2
100
AcDbSymbolTableRecord
100
AcDbLayerTableRecord
  2
RAHMEN07
 70
     0
 62
     5
  6
Continuous
370
    -3
390
F
347
46
348
0
  0
LAYER
  5
76
330
2
100
AcDbSymbolTableRecord
100
AcDbLayerTableRecord
  2
RAHMEN05
 70
     0
 62
     6
  6
Continuous
370
    -3
390
F
347
46
348
0
  0
LAYER
  5
77
330
2
100
AcDbSymbolTableRecord
100
AcDbLayerTableRecord
  2
TB
 70
     0
 62
     7
  6
Continuous
370
    -3
390
F
347
46
348
0
  0
LAYER
  5
78
330
2
100
AcDbSymbolTableRecord
100
AcDbLayerTableRecord
  2
1-VIDNO
 70
     0
 62
     5
  6
Continuous
370
    -3
390
F
347
46
348
0
  0
LAYER
  5
79
330
2
100
AcDbSymbolTableRecord
100
AcDbLayerTableRecord
  2
2-NEVIDNO
 70
     0
 62
     5
  6
HIDDEN
370
    -3
390
F
347
46
348
0
  0
LAYER
  5
7A
330
2
100
AcDbSymbolTableRecord
100
AcDbLayerTableRecord
  2
O-GLAVE
 70
     0
 62
     5
  6
Continuous
370
    -3
390
F
347
46
348
0
  0
LAYER
  5
7B
330
2
100
AcDbSymbolTableRecord
100
AcDbLayerTableRecord
  2
O-TEKST
 70
     0
 62
     7
  6
Continuous
370
    -3
390
F
347
46
348
0
  0
LAYER
  5
7C
330
2
100
AcDbSymbolTableRecord
100
AcDbLayerTableRecord
  2
O-ZUNANJI
 70
     0
 62
     7
  6
Continuous
370
    -3
390
F
347
46
348
0
  0
LAYER
  5
7D
330
2
100
AcDbSymbolTableRecord
100
AcDbLayerTableRecord
  2
SLD-DEFPOINTS
 70
     0
 62
     7
  6
Continuous
370
    -3
390
F
347
46
348
0
  0
LAYER
  5
7E
330
2
100
AcDbSymbolTableRecord
100
AcDbLayerTableRecord
  2
3-POMOZNO
 70
     0
 62
     4
  6
Continuous
370
    -3
390
F
347
46
348
0
  0
LAYER
  5
7F
330
2
100
AcDbSymbolTableRecord
100
AcDbLayerTableRecord
  2
4-SREDNJICA
 70
     0
 62
     1
  6
CENTER
370
    -3
390
F
347
46
348
0
  0
LAYER
  5
80
330
2
100
AcDbSymbolTableRecord
100
AcDbLayerTableRecord
  2
5-SRAFURA
 70
     0
 62
     7
  6
Continuous
370
    -3
390
F
347
46
348
0
  0
LAYER
  5
81
330
2
100
AcDbSymbolTableRecord
100
AcDbLayerTableRecord
  2
6-KOTE
 70
     0
 62
     7
  6
Continuous
370
    -3
390
F
347
46
348
0
  0
LAYER
  5
82
330
2
100
AcDbSymbolTableRecord
100
AcDbLayerTableRecord
  2
7-TEKST
 70
     0
 62
     7
  6
Continuous
370
    -3
390
F
347
46
348
0
  0
LAYER
  5
83
330
2
100
AcDbSymbolTableRecord
100
AcDbLayerTableRecord
  2
8-VARJENJA
 70
     0
 62
     1
  6
Continuous
370
    -3
390
F
347
46
348
0
  0
LAYER
  5
84
330
2
100
AcDbSymbolTableRecord
100
AcDbLayerTableRecord
  2
BEMASSUNG
 70
     0
 62
     7
  6
Continuous
370
    -3
390
F
347
46
348
0
  0
LAYER
  5
85
330
2
100
AcDbSymbolTableRecord
100
AcDbLayerTableRecord
  2
UMRISS03
 70
     0
 62
     7
  6
Continuous
370
    -3
390
F
347
46
348
0
  0
LAYER
  5
86
330
2
100
AcDbSymbolTableRecord
100
AcDbLayerTableRecord
  2
UMRISS02
 70
     0
 62
     7
  6
Continuous
370
    -3
390
F
347
46
348
0
  0
LAYER
  5
87
330
2
100
AcDbSymbolTableRecord
100
AcDbLayerTableRecord
  2
HILFSLINIEN
 70
     0
 62
     7
  6
Continuous
370
    -3
390
F
347
46
348
0
  0
LAYER
  5
88
330
2
100
AcDbSymbolTableRecord
100
AcDbLayerTableRecord
  2
UMRISS03_-PSPAC_
 70
     0
 62
     7
  6
Continuous
370
    -3
390
F
347
46
348
0
  0
LAYER
  5
89
330
2
100
AcDbSymbolTableRecord
100
AcDbLayerTableRecord
  2
ACA_VARSAVE
 70
     0
 62
     7
  6
Continuous
370
    -3
390
F
347
46
348
0
  0
LAYER
  5
8A
330
2
100
AcDbSymbolTableRecord
100
AcDbLayerTableRecord
  2
KONTUREN
 70
     0
 62
     7
  6
Continuous
370
    -3
390
F
347
46
348
0
  0
LAYER
  5
8B
330
2
100
AcDbSymbolTableRecord
100
AcDbLayerTableRecord
  2
ACHSE
 70
     0
 62
     7
  6
Continuous
370
    -3
390
F
347
46
348
0
  0
LAYER
  5
8C
330
2
100
AcDbSymbolTableRecord
100
AcDbLayerTableRecord
  2
UNSICHTBAR
 70
     0
 62
     7
  6
Continuous
370
    -3
390
F
347
46
348
0
  0
LAYER
  5
8D
330
2
100
AcDbSymbolTableRecord
100
AcDbLayerTableRecord
  2
MASSE
 70
     0
 62
     7
  6
Continuous
370
    -3
390
F
347
46
348
0
  0
LAYER
  5
8E
330
2
100
AcDbSymbolTableRecord
100
AcDbLayerTableRecord
  2
RAND
 70
     0
 62
     7
  6
Continuous
370
    -3
390
F
347
46
348
0
  0
LAYER
  5
8F
330
2
100
AcDbSymbolTableRecord
100
AcDbLayerTableRecord
  2
D-TEXT
 70
     0
 62
     7
  6
Continuous
370
    -3
390
F
347
46
348
0
  0
LAYER
  5
90
330
2
100
AcDbSymbolTableRecord
100
AcDbLayerTableRecord
  2
F-TEXT
 70
     0
 62
     7
  6
Continuous
370
    -3
390
F
347
46
348
0
  0
LAYER
  5
91
330
2
100
AcDbSymbolTableRecord
100
AcDbLayerTableRecord
  2
I-TEXT
 70
     0
 62
     7
  6
Continuous
370
    -3
390
F
347
46
348
0
  0
LAYER
  5
92
330
2
100
AcDbSymbolTableRecord
100
AcDbLayerTableRecord
  2
D-TEXT-FETT
 70
     0
 62
     7
  6
Continuous
370
    -3
390
F
347
46
348
0
  0
LAYER
  5
93
330
2
100
AcDbSymbolTableRecord
100
AcDbLayerTableRecord
  2
F-TEXT-FETT
 70
     0
 62
     7
  6
Continuous
370
    -3
390
F
347
46
348
0
  0
LAYER
  5
94
330
2
100
AcDbSymbolTableRecord
100
AcDbLayerTableRecord
  2
I-TEXT-FETT
 70
     0
 62
     7
  6
Continuous
370
    -3
390
F
347
46
348
0
  0
LAYER
  5
95
330
2
100
AcDbSymbolTableRecord
100
AcDbLayerTableRecord
  2
TEXT-D-F-I
 70
     0
 62
     7
  6
Continuous
370
    -3
390
F
347
46
348
0
  0
LAYER
  5
96
330
2
100
AcDbSymbolTableRecord
100
AcDbLayerTableRecord
  2
TEXT-D-F-I-FETT
 70
     0
 62
     7
  6
Continuous
370
    -3
390
F
347
46
348
0
  0
ENDTAB
  0
TABLE
  2
STYLE
  5
3
330
0
100
AcDbSymbolTable
 70
     2
  0
STYLE
  5
11
330
3
100
AcDbSymbolTableRecord
100
AcDbTextStyleTableRecord
  2
Standard
 70
     0
 40
0.0
 41
1.0
 50
0.0
 71
     0
 42
3.5
  3
txt
  4

  0
STYLE
  5
186
330
3
100
AcDbSymbolTableRecord
100
AcDbTextStyleTableRecord
  2
SLDTEXTSTYLE0
 70
     0
 40
0.0
 41
0.75
 50
0.0
 71
     0
 42
3.5
  3
TXT
  4

  0
ENDTAB
  0
TABLE
  2
VIEW
  5
6
330
0
100
AcDbSymbolTable
 70
     0
  0
ENDTAB
  0
TABLE
  2
UCS
  5
7
330
0
100
AcDbSymbolTable
 70
     0
  0
ENDTAB
  0
TABLE
  2
APPID
  5
9
330
0
100
AcDbSymbolTable
 70
     1
  0
APPID
  5
12
330
9
100
AcDbSymbolTableRecord
100
AcDbRegAppTableRecord
  2
ACAD
 70
     0
  0
ENDTAB
  0
TABLE
  2
DIMSTYLE
  5
A
330
0
100
AcDbSymbolTable
 70
     1
100
AcDbDimStyleTable
  0
DIMSTYLE
105
27
330
A
100
AcDbSymbolTableRecord
100
AcDbDimStyleTableRecord
  2
ISO-25
 70
     0
 41
2.5
 42
0.625
 43
3.75
 44
1.25
 73
     0
 74
     0
 77
     1
 78
     8
140
2.5
141
2.5
143
0.0393700787
147
0.625
171
     3
172
     1
178
     0
271
     2
272
     2
274
     3
278
    44
283
     0
284
     8
340
11
  0
ENDTAB
  0
TABLE
  2
BLOCK_RECORD
  5
1
330
0
100
AcDbSymbolTable
 70
     3
  0
BLOCK_RECORD
  5
1F
330
1
100
AcDbSymbolTableRecord
100
AcDbBlockTableRecord
  2
*Model_Space
340
22
 70
     0
280
     1
281
     0
  0
BLOCK_RECORD
  5
1B
330
1
100
AcDbSymbolTableRecord
100
AcDbBlockTableRecord
  2
*Paper_Space
340
1E
 70
     0
280
     1
281
     0
  0
BLOCK_RECORD
  5
23
330
1
100
AcDbSymbolTableRecord
100
AcDbBlockTableRecord
  2
*Paper_Space0
340
26
 70
     0
280
     1
281
     0
  0
BLOCK_RECORD
  5
261
330
1
100
AcDbSymbolTableRecord
100
AcDbBlockTableRecord
  2
SW_NOTE_0
340
0
102
{BLKREFS
331
266
102
}
 70
     0
280
     1
281
     0
  0
BLOCK_RECORD
  5
2C6
330
1
100
AcDbSymbolTableRecord
100
AcDbBlockTableRecord
  2
SW_NOTE_1
340
0
102
{BLKREFS
331
2CB
102
}
 70
     0
280
     1
281
     0
  0
ENDTAB
  0
ENDSEC
  0
SECTION
  2
BLOCKS
  0
BLOCK
  5
20
330
1F
100
AcDbEntity
  8
0
100
AcDbBlockBegin
  2
*Model_Space
 70
     0
 10
0.0
 20
0.0
 30
0.0
  3
*Model_Space
  1

  0
ENDBLK
  5
21
330
1F
100
AcDbEntity
  8
0
100
AcDbBlockEnd
  0
BLOCK
  5
1C
330
1B
100
AcDbEntity
 67
     1
  8
0
100
AcDbBlockBegin
  2
*Paper_Space
 70
     0
 10
0.0
 20
0.0
 30
0.0
  3
*Paper_Space
  1

  0
ENDBLK
  5
1D
330
1B
100
AcDbEntity
 67
     1
  8
0
100
AcDbBlockEnd
  0
BLOCK
  5
24
330
23
100
AcDbEntity
  8
0
100
AcDbBlockBegin
  2
*Paper_Space0
 70
     0
 10
0.0
 20
0.0
 30
0.0
  3
*Paper_Space0
  1

  0
ENDBLK
  5
25
330
23
100
AcDbEntity
  8
0
100
AcDbBlockEnd
  0
BLOCK
  5
262
330
261
100
AcDbEntity
  8
0
100
AcDbBlockBegin
  2
SW_NOTE_0
 70
     0
 10
0.0
 20
0.0
 30
0.0
  3
SW_NOTE_0
  1

  0
MTEXT
  5
264
330
261
100
AcDbEntity
  8
O-TEKST
 62
     0
100
AcDbMText
 10
16.0734375
 20
8.1855801476
 30
0.0
 40
6.35
 41
0.0
 46
0.0
 71
     2
 72
     1
  1
SCHNITT
  7
SLDTEXTSTYLE0
 73
     1
 44
1.0
  0
MTEXT
  5
265
330
261
100
AcDbEntity
  8
O-TEKST
 62
     0
100
AcDbMText
 10
38.5538176
 20
5.3469457771
 30
0.0
 40
3.5
 41
0.0
 46
0.0
 71
     2
 72
     1
  1
A-A
  7
SLDTEXTSTYLE0
 73
     1
 44
1.0
  0
ENDBLK
  5
263
330
261
100
AcDbEntity
  8
0
100
AcDbBlockEnd
  0
BLOCK
  5
2C7
330
2C6
100
AcDbEntity
  8
0
100
AcDbBlockBegin
  2
SW_NOTE_1
 70
     0
 10
0.0
 20
0.0
 30
0.0
  3
SW_NOTE_1
  1

  0
MTEXT
  5
2C9
330
2C6
100
AcDbEntity
  8
O-TEKST
 62
     0
100
AcDbMText
 10
16.0734375
 20
8.1855801476
 30
0.0
 40
6.35
 41
0.0
 46
0.0
 71
     2
 72
     1
  1
SCHNITT
  7
SLDTEXTSTYLE0
 73
     1
 44
1.0
  0
MTEXT
  5
2CA
330
2C6
100
AcDbEntity
  8
O-TEKST
 62
     0
100
AcDbMText
 10
38.0069426
 20
5.3469457771
 30
0.0
 40
3.5
 41
0.0
 46
0.0
 71
     2
 72
     1
  1
B-B
  7
SLDTEXTSTYLE0
 73
     1
 44
1.0
  0
ENDBLK
  5
2C8
330
2C6
100
AcDbEntity
  8
0
100
AcDbBlockEnd
  0
ENDSEC
  0
SECTION
  2
ENTITIES
  0
LINE
  5
97
330
1F
100
AcDbEntity
  8
0
  6
Continuous
 62
     7
370
    25
100
AcDbLine
 10
-124.7182562403
 20
57.4091967878
 30
0.0
 11
-124.7182562403
 21
56.9091967878
 31
0.0
  0
LINE
  5
98
330
1F
100
AcDbEntity
  8
0
  6
Continuous
 62
     7
370
    25
100
AcDbLine
 10
-127.7182562403
 20
56.9091967878
 30
0.0
 11
-124.7182562403
 21
56.9091967878
 31
0.0
  0
LINE
  5
99
330
1F
100
AcDbEntity
  8
0
  6
Continuous
 62
     7
370
    25
100
AcDbLine
 10
-127.7182562403
 20
57.4091967878
 30
0.0
 11
-124.7182562403
 21
57.4091967878
 31
0.0
  0
LINE
  5
9A
330
1F
100
AcDbEntity
  8
0
  6
Continuous
 62
     7
370
    25
100
AcDbLine
 10
-127.7182562403
 20
57.4091967878
 30
0.0
 11
-127.7182562403
 21
56.9091967878
 31
0.0
  0
LINE
  5
9B
330
1F
100
AcDbEntity
  8
0
  6
Continuous
 62
     7
370
    25
100
AcDbLine
 10
-124.7182562403
 20
-35.858009588
 30
0.0
 11
-124.7182562403
 21
-35.358009588
 31
0.0
  0
LINE
  5
9C
330
1F
100
AcDbEntity
  8
0
  6
Continuous
 62
     7
370
    25
100
AcDbLine
 10
-124.7182562403
 20
-35.858009588
 30
0.0
 11
-127.7182562403
 21
-35.858009588
 31
0.0
  0
LINE
  5
9D
330
1F
100
AcDbEntity
  8
0
  6
Continuous
 62
     7
370
    25
100
AcDbLine
 10
-127.7182562403
 20
-35.858009588
 30
0.0
 11
-127.7182562403
 21
-35.358009588
 31
0.0
  0
LINE
  5
9E
330
1F
100
AcDbEntity
  8
0
  6
Continuous
 62
     7
370
    25
100
AcDbLine
 10
-124.7182562403
 20
-35.358009588
 30
0.0
 11
-127.7182562403
 21
-35.358009588
 31
0.0
  0
LINE
  5
9F
330
1F
100
AcDbEntity
  8
0
  6
Continuous
 62
     7
370
    25
100
AcDbLine
 10
-128.7182562403
 20
-36.558009588
 30
0.0
 11
-128.7182562403
 21
-44.4244064001
 31
0.0
  0
LINE
  5
A0
330
1F
100
AcDbEntity
  8
0
  6
Continuous
 62
     7
370
    25
100
AcDbLine
 10
-123.7182562403
 20
-36.558009588
 30
0.0
 11
-123.7182562403
 21
-44.4244064001
 31
0.0
  0
LINE
  5
A1
330
1F
100
AcDbEntity
  8
0
  6
Continuous
 62
     7
370
    25
100
AcDbLine
 10
-128.7182562403
 20
-35.858009588
 30
0.0
 11
-127.7182562403
 21
-35.858009588
 31
0.0
  0
LINE
  5
A2
330
1F
100
AcDbEntity
  8
0
  6
Continuous
 62
     7
370
    25
100
AcDbLine
 10
-124.7182562403
 20
-35.858009588
 30
0.0
 11
-123.7182562403
 21
-35.858009588
 31
0.0
  0
LINE
  5
A3
330
1F
100
AcDbEntity
  8
0
  6
Continuous
 62
     7
370
    25
100
AcDbLine
 10
-123.7182562403
 20
-35.858009588
 30
0.0
 11
-123.7182562403
 21
-36.558009588
 31
0.0
  0
LINE
  5
A4
330
1F
100
AcDbEntity
  8
0
  6
Continuous
 62
     7
370
    25
100
AcDbLine
 10
-128.7182562403
 20
-35.858009588
 30
0.0
 11
-128.7182562403
 21
-36.558009588
 31
0.0
  0
LINE
  5
A5
330
1F
100
AcDbEntity
  8
0
  6
Continuous
 62
     7
370
    25
100
AcDbLine
 10
-123.7182562403
 20
57.4091967878
 30
0.0
 11
-123.7182562403
 21
58.1091967878
 31
0.0
  0
LINE
  5
A6
330
1F
100
AcDbEntity
  8
0
  6
Continuous
 62
     7
370
    25
100
AcDbLine
 10
-123.7182562403
 20
57.4091967878
 30
0.0
 11
-124.7182562403
 21
57.4091967878
 31
0.0
  0
LINE
  5
A7
330
1F
100
AcDbEntity
  8
0
  6
Continuous
 62
     7
370
    25
100
AcDbLine
 10
-127.7182562403
 20
57.4091967878
 30
0.0
 11
-128.7182562403
 21
57.4091967878
 31
0.0
  0
LINE
  5
A8
330
1F
100
AcDbEntity
  8
0
  6
Continuous
 62
     7
370
    25
100
AcDbLine
 10
-128.7182562403
 20
57.4091967878
 30
0.0
 11
-128.7182562403
 21
58.1091967878
 31
0.0
  0
LINE
  5
A9
330
1F
100
AcDbEntity
  8
0
  6
Continuous
 62
     7
370
    25
100
AcDbLine
 10
-123.7182562403
 20
58.1091967878
 30
0.0
 11
-123.7182562403
 21
65.9755935999
 31
0.0
  0
LINE
  5
AA
330
1F
100
AcDbEntity
  8
0
  6
Continuous
 62
     7
370
    25
100
AcDbLine
 10
-128.7182562403
 20
58.1091967878
 30
0.0
 11
-128.7182562403
 21
65.9755935999
 31
0.0
  0
LINE
  5
AB
330
1F
100
AcDbEntity
  8
0
  6
Continuous
 62
     7
370
    25
100
AcDbLine
 10
-144.2182562403
 20
-44.4244064001
 30
0.0
 11
-151.2182562403
 21
-44.4244064001
 31
0.0
  0
LINE
  5
AC
330
1F
100
AcDbEntity
  8
0
  6
Continuous
 62
     7
370
    25
100
AcDbLine
 10
-144.2182562403
 20
-63.4244064001
 30
0.0
 11
-144.2182562403
 21
-44.4244064001
 31
0.0
  0
LINE
  5
AD
330
1F
100
AcDbEntity
  8
0
  6
Continuous
 62
     7
370
    25
100
AcDbLine
 10
-151.2182562403
 20
-63.4244064001
 30
0.0
 11
-144.2182562403
 21
-63.4244064001
 31
0.0
  0
LINE
  5
AE
330
1F
100
AcDbEntity
  8
0
  6
Continuous
 62
     7
370
    25
100
AcDbLine
 10
-151.2182562403
 20
-44.4244064001
 30
0.0
 11
-151.2182562403
 21
-63.4244064001
 31
0.0
  0
LINE
  5
AF
330
1F
100
AcDbEntity
  8
0
  6
Continuous
 62
     7
370
    25
100
AcDbLine
 10
-142.7182562403
 20
-44.4244064001
 30
0.0
 11
-142.7182562403
 21
-63.4244064001
 31
0.0
  0
LINE
  5
B0
330
1F
100
AcDbEntity
  8
0
  6
Continuous
 62
     7
370
    25
100
AcDbLine
 10
-144.2182562403
 20
-44.4244064001
 30
0.0
 11
-142.7182562403
 21
-44.4244064001
 31
0.0
  0
LINE
  5
B1
330
1F
100
AcDbEntity
  8
0
  6
Continuous
 62
     7
370
    25
100
AcDbLine
 10
-142.7182562403
 20
-63.4244064001
 30
0.0
 11
-144.2182562403
 21
-63.4244064001
 31
0.0
  0
CIRCLE
  5
B2
330
1F
100
AcDbEntity
  8
0
  6
Continuous
 62
     7
370
    25
100
AcDbCircle
 10
-100.2182562403
 20
-48.4244064001
 30
0.0
 40
1.0
  0
CIRCLE
  5
B3
330
1F
100
AcDbEntity
  8
0
  6
Continuous
 62
     7
370
    25
100
AcDbCircle
 10
-100.2182562403
 20
-59.4244064001
 30
0.0
 40
1.0
  0
LINE
  5
B4
330
1F
100
AcDbEntity
  8
0
  6
Continuous
 62
     7
370
    25
100
AcDbLine
 10
-96.2182562403
 20
-63.4244064001
 30
0.0
 11
-96.2182562403
 21
-44.4244064001
 31
0.0
  0
CIRCLE
  5
B5
330
1F
100
AcDbEntity
  8
0
  6
Continuous
 62
     7
370
    25
100
AcDbCircle
 10
-135.2182562403
 20
-48.4244064001
 30
0.0
 40
1.0
  0
CIRCLE
  5
B6
330
1F
100
AcDbEntity
  8
0
  6
Continuous
 62
     7
370
    25
100
AcDbCircle
 10
-135.2182562403
 20
-59.4244064001
 30
0.0
 40
1.0
  0
LINE
  5
B7
330
1F
100
AcDbEntity
  8
0
  6
Continuous
 62
     7
370
    25
100
AcDbLine
 10
-96.2182562403
 20
-44.4244064001
 30
0.0
 11
-142.7182562403
 21
-44.4244064001
 31
0.0
  0
LINE
  5
B8
330
1F
100
AcDbEntity
  8
0
  6
Continuous
 62
     7
370
    25
100
AcDbLine
 10
-142.7182562403
 20
-63.4244064001
 30
0.0
 11
-96.2182562403
 21
-63.4244064001
 31
0.0
  0
LINE
  5
B9
330
1F
100
AcDbEntity
  8
0
  6
Continuous
 62
     7
370
    25
100
AcDbLine
 10
-144.2182562403
 20
84.9755935999
 30
0.0
 11
-151.2182562403
 21
84.9755935999
 31
0.0
  0
LINE
  5
BA
330
1F
100
AcDbEntity
  8
0
  6
Continuous
 62
     7
370
    25
100
AcDbLine
 10
-144.2182562403
 20
65.9755935999
 30
0.0
 11
-144.2182562403
 21
84.9755935999
 31
0.0
  0
LINE
  5
BB
330
1F
100
AcDbEntity
  8
0
  6
Continuous
 62
     7
370
    25
100
AcDbLine
 10
-151.2182562403
 20
65.9755935999
 30
0.0
 11
-144.2182562403
 21
65.9755935999
 31
0.0
  0
LINE
  5
BC
330
1F
100
AcDbEntity
  8
0
  6
Continuous
 62
     7
370
    25
100
AcDbLine
 10
-151.2182562403
 20
84.9755935999
 30
0.0
 11
-151.2182562403
 21
65.9755935999
 31
0.0
  0
LINE
  5
BD
330
1F
100
AcDbEntity
  8
0
  6
Continuous
 62
     7
370
    25
100
AcDbLine
 10
-142.7182562403
 20
84.9755935999
 30
0.0
 11
-142.7182562403
 21
65.9755935999
 31
0.0
  0
LINE
  5
BE
330
1F
100
AcDbEntity
  8
0
  6
Continuous
 62
     7
370
    25
100
AcDbLine
 10
-142.7182562403
 20
65.9755935999
 30
0.0
 11
-144.2182562403
 21
65.9755935999
 31
0.0
  0
LINE
  5
BF
330
1F
100
AcDbEntity
  8
0
  6
Continuous
 62
     7
370
    25
100
AcDbLine
 10
-144.2182562403
 20
84.9755935999
 30
0.0
 11
-142.7182562403
 21
84.9755935999
 31
0.0
  0
LINE
  5
C0
330
1F
100
AcDbEntity
  8
0
  6
Continuous
 62
     7
370
    25
100
AcDbLine
 10
-96.2182562403
 20
65.9755935999
 30
0.0
 11
-96.2182562403
 21
84.9755935999
 31
0.0
  0
CIRCLE
  5
C1
330
1F
100
AcDbEntity
  8
0
  6
Continuous
 62
     7
370
    25
100
AcDbCircle
 10
-135.2182562403
 20
80.9755935999
 30
0.0
 40
1.000000000000014
  0
CIRCLE
  5
C2
330
1F
100
AcDbEntity
  8
0
  6
Continuous
 62
     7
370
    25
100
AcDbCircle
 10
-100.2182562403
 20
69.9755935999
 30
0.0
 40
1.0
  0
CIRCLE
  5
C3
330
1F
100
AcDbEntity
  8
0
  6
Continuous
 62
     7
370
    25
100
AcDbCircle
 10
-100.2182562403
 20
80.9755935999
 30
0.0
 40
1.000000000000014
  0
CIRCLE
  5
C4
330
1F
100
AcDbEntity
  8
0
  6
Continuous
 62
     7
370
    25
100
AcDbCircle
 10
-135.2182562403
 20
69.9755935999
 30
0.0
 40
1.0
  0
LINE
  5
C5
330
1F
100
AcDbEntity
  8
0
  6
Continuous
 62
     7
370
    25
100
AcDbLine
 10
-142.7182562403
 20
65.9755935999
 30
0.0
 11
-96.2182562403
 21
65.9755935999
 31
0.0
  0
LINE
  5
C6
330
1F
100
AcDbEntity
  8
0
  6
Continuous
 62
     7
370
    25
100
AcDbLine
 10
-96.2182562403
 20
84.9755935999
 30
0.0
 11
-142.7182562403
 21
84.9755935999
 31
0.0
  0
ARC
  5
C7
330
1F
100
AcDbEntity
  8
0
  6
Continuous
 62
     7
370
    25
100
AcDbCircle
 10
-183.2682562403
 20
1.9755935999
 30
0.0
 40
0.700000000000017
100
AcDbArc
 50
0.0
 51
90.0
  0
LINE
  5
C8
330
1F
100
AcDbEntity
  8
0
  6
Continuous
 62
     7
370
    25
100
AcDbLine
 10
-183.2682562403
 20
2.6755935999
 30
0.0
 11
-184.9682562403
 21
2.6755935999
 31
0.0
  0
ARC
  5
C9
330
1F
100
AcDbEntity
  8
0
  6
Continuous
 62
     7
370
    25
100
AcDbCircle
 10
-184.9682562403
 20
1.9755935999
 30
0.0
 40
0.7000000000000008
100
AcDbArc
 50
90.0
 51
180.0
  0
LINE
  5
CA
330
1F
100
AcDbEntity
  8
0
  6
Continuous
 62
     7
370
    25
100
AcDbLine
 10
-185.6682562403
 20
1.9755935999
 30
0.0
 11
-185.6682562403
 21
1.7755935999
 31
0.0
  0
ARC
  5
CB
330
1F
100
AcDbEntity
  8
0
  6
Continuous
 62
     7
370
    25
100
AcDbCircle
 10
-184.9682562403
 20
1.7755935999
 30
0.0
 40
0.7000000000000008
100
AcDbArc
 50
180.0
 51
270.0
  0
LINE
  5
CC
330
1F
100
AcDbEntity
  8
0
  6
Continuous
 62
     7
370
    25
100
AcDbLine
 10
-184.9682562403
 20
1.0755935999
 30
0.0
 11
-183.2682562403
 21
1.0755935999
 31
0.0
  0
ARC
  5
CD
330
1F
100
AcDbEntity
  8
0
  6
Continuous
 62
     7
370
    25
100
AcDbCircle
 10
-183.2682562403
 20
1.7755935999
 30
0.0
 40
0.700000000000017
100
AcDbArc
 50
270.0
 51
0.0
  0
LINE
  5
CE
330
1F
100
AcDbEntity
  8
0
  6
Continuous
 62
     7
370
    25
100
AcDbLine
 10
-182.5682562403
 20
1.7755935999
 30
0.0
 11
-182.5682562403
 21
1.9755935999
 31
0.0
  0
LINE
  5
CF
330
1F
100
AcDbEntity
  8
0
  6
Continuous
 62
     7
370
    25
100
AcDbLine
 10
-183.2682562403
 20
2.8755935999
 30
0.0
 11
-184.9682562403
 21
2.8755935999
 31
0.0
  0
ARC
  5
D0
330
1F
100
AcDbEntity
  8
0
  6
Continuous
 62
     7
370
    25
100
AcDbCircle
 10
-183.2682562403
 20
1.9755935999
 30
0.0
 40
0.9000000000000341
100
AcDbArc
 50
0.0
 51
90.0
  0
LINE
  5
D1
330
1F
100
AcDbEntity
  8
0
  6
Continuous
 62
     7
370
    25
100
AcDbLine
 10
-182.3682562403
 20
1.7755935999
 30
0.0
 11
-182.3682562403
 21
1.9755935999
 31
0.0
  0
ARC
  5
D2
330
1F
100
AcDbEntity
  8
0
  6
Continuous
 62
     7
370
    25
100
AcDbCircle
 10
-183.2682562403
 20
1.7755935999
 30
0.0
 40
0.9000000000000341
100
AcDbArc
 50
270.0
 51
0.0
  0
LINE
  5
D3
330
1F
100
AcDbEntity
  8
0
  6
Continuous
 62
     7
370
    25
100
AcDbLine
 10
-184.9682562403
 20
0.8755935999
 30
0.0
 11
-183.2682562403
 21
0.8755935999
 31
0.0
  0
ARC
  5
D4
330
1F
100
AcDbEntity
  8
0
  6
Continuous
 62
     7
370
    25
100
AcDbCircle
 10
-184.9682562403
 20
1.7755935999
 30
0.0
 40
0.8999999999999997
100
AcDbArc
 50
180.0
 51
270.0
  0
LINE
  5
D5
330
1F
100
AcDbEntity
  8
0
  6
Continuous
 62
     7
370
    25
100
AcDbLine
 10
-185.8682562403
 20
1.9755935999
 30
0.0
 11
-185.8682562403
 21
1.7755935999
 31
0.0
  0
ARC
  5
D6
330
1F
100
AcDbEntity
  8
0
  6
Continuous
 62
     7
370
    25
100
AcDbCircle
 10
-184.9682562403
 20
1.9755935999
 30
0.0
 40
0.9000000000000015
100
AcDbArc
 50
90.0
 51
180.0
  0
LINE
  5
D7
330
1F
100
AcDbEntity
  8
0
  6
Continuous
 62
     7
370
    25
100
AcDbLine
 10
-183.2682562403
 20
20.4755935999
 30
0.0
 11
-184.9682562403
 21
20.4755935999
 31
0.0
  0
ARC
  5
D8
330
1F
100
AcDbEntity
  8
0
  6
Continuous
 62
     7
370
    25
100
AcDbCircle
 10
-183.2682562403
 20
19.7755935999
 30
0.0
 40
0.9000000000000341
100
AcDbArc
 50
0.0
 51
90.0
  0
LINE
  5
D9
330
1F
100
AcDbEntity
  8
0
  6
Continuous
 62
     7
370
    25
100
AcDbLine
 10
-182.3682562403
 20
19.5755935999
 30
0.0
 11
-182.3682562403
 21
19.7755935999
 31
0.0
  0
ARC
  5
DA
330
1F
100
AcDbEntity
  8
0
  6
Continuous
 62
     7
370
    25
100
AcDbCircle
 10
-183.2682562403
 20
19.5755935999
 30
0.0
 40
0.9000000000000341
100
AcDbArc
 50
270.0
 51
0.0
  0
ARC
  5
DB
330
1F
100
AcDbEntity
  8
0
  6
Continuous
 62
     7
370
    25
100
AcDbCircle
 10
-184.9682562403
 20
19.7755935999
 30
0.0
 40
0.6999999999999993
100
AcDbArc
 50
90.0
 51
180.0
  0
LINE
  5
DC
330
1F
100
AcDbEntity
  8
0
  6
Continuous
 62
     7
370
    25
100
AcDbLine
 10
-184.9682562403
 20
18.8755935999
 30
0.0
 11
-183.2682562403
 21
18.8755935999
 31
0.0
  0
ARC
  5
DD
330
1F
100
AcDbEntity
  8
0
  6
Continuous
 62
     7
370
    25
100
AcDbCircle
 10
-183.2682562403
 20
19.5755935999
 30
0.0
 40
0.700000000000017
100
AcDbArc
 50
270.0
 51
0.0
  0
LINE
  5
DE
330
1F
100
AcDbEntity
  8
0
  6
Continuous
 62
     7
370
    25
100
AcDbLine
 10
-185.6682562403
 20
19.7755935999
 30
0.0
 11
-185.6682562403
 21
19.5755935999
 31
0.0
  0
LINE
  5
DF
330
1F
100
AcDbEntity
  8
0
  6
Continuous
 62
     7
370
    25
100
AcDbLine
 10
-184.9682562403
 20
18.6755935999
 30
0.0
 11
-183.2682562403
 21
18.6755935999
 31
0.0
  0
LINE
  5
E0
330
1F
100
AcDbEntity
  8
0
  6
Continuous
 62
     7
370
    25
100
AcDbLine
 10
-183.2682562403
 20
20.6755935999
 30
0.0
 11
-184.9682562403
 21
20.6755935999
 31
0.0
  0
ARC
  5
E1
330
1F
100
AcDbEntity
  8
0
  6
Continuous
 62
     7
370
    25
100
AcDbCircle
 10
-184.9682562403
 20
19.5755935999
 30
0.0
 40
0.7000000000000028
100
AcDbArc
 50
180.0
 51
270.0
  0
ARC
  5
E2
330
1F
100
AcDbEntity
  8
0
  6
Continuous
 62
     7
370
    25
100
AcDbCircle
 10
-184.9682562403
 20
19.5755935999
 30
0.0
 40
0.9000000000000057
100
AcDbArc
 50
180.0
 51
270.0
  0
ARC
  5
E3
330
1F
100
AcDbEntity
  8
0
  6
Continuous
 62
     7
370
    25
100
AcDbCircle
 10
-184.9682562403
 20
19.7755935999
 30
0.0
 40
0.8999999999999986
100
AcDbArc
 50
90.0
 51
180.0
  0
LINE
  5
E4
330
1F
100
AcDbEntity
  8
0
  6
Continuous
 62
     7
370
    25
100
AcDbLine
 10
-185.8682562403
 20
19.7755935999
 30
0.0
 11
-185.8682562403
 21
19.5755935999
 31
0.0
  0
LINE
  5
E5
330
1F
100
AcDbEntity
  8
0
  6
Continuous
 62
     7
370
    25
100
AcDbLine
 10
-182.5682562403
 20
19.5755935999
 30
0.0
 11
-182.5682562403
 21
19.7755935999
 31
0.0
  0
ARC
  5
E6
330
1F
100
AcDbEntity
  8
0
  6
Continuous
 62
     7
370
    25
100
AcDbCircle
 10
-183.2682562403
 20
19.7755935999
 30
0.0
 40
0.700000000000017
100
AcDbArc
 50
0.0
 51
90.0
  0
LINE
  5
E7
330
1F
100
AcDbEntity
  8
0
  6
Continuous
 62
     7
370
    25
100
AcDbLine
 10
-152.1182562403
 20
30.4755935999
 30
0.0
 11
-152.1182562403
 21
-8.9244064001
 31
0.0
  0
LINE
  5
E8
330
1F
100
AcDbEntity
  8
0
  6
Continuous
 62
     7
370
    25
100
AcDbLine
 10
-152.1182562403
 20
-8.9244064001
 30
0.0
 11
-216.1182562403
 21
-8.9244064001
 31
0.0
  0
LINE
  5
E9
330
1F
100
AcDbEntity
  8
0
  6
Continuous
 62
     7
370
    25
100
AcDbLine
 10
-216.1182562403
 20
30.4755935999
 30
0.0
 11
-152.1182562403
 21
30.4755935999
 31
0.0
  0
LINE
  5
EA
330
1F
100
AcDbEntity
  8
0
  6
Continuous
 62
     7
370
    25
100
AcDbLine
 10
-216.1182562403
 20
-8.9244064001
 30
0.0
 11
-216.1182562403
 21
30.4755935999
 31
0.0
  0
LINE
  5
EB
330
1F
100
AcDbEntity
  8
0
  6
Continuous
 62
     7
370
    25
100
AcDbLine
 10
-216.1136282568
 20
30.4709656163
 30
0.0
 11
-152.1228842239
 21
30.4709656163
 31
0.0
  0
LINE
  5
EC
330
1F
100
AcDbEntity
  8
0
  6
Continuous
 62
     7
370
    25
100
AcDbLine
 10
-152.1228842239
 20
-8.9197784165
 30
0.0
 11
-216.1136282568
 21
-8.9197784165
 31
0.0
  0
LINE
  5
ED
330
1F
100
AcDbEntity
  8
0
  6
Continuous
 62
     7
370
    25
100
AcDbLine
 10
-152.1228842239
 20
30.4709656163
 30
0.0
 11
-152.1228842239
 21
-8.9197784165
 31
0.0
  0
LINE
  5
EE
330
1F
100
AcDbEntity
  8
0
  6
Continuous
 62
     7
370
    25
100
AcDbLine
 10
-216.1136282568
 20
-8.9197784165
 30
0.0
 11
-216.1136282568
 21
30.4709656163
 31
0.0
  0
LINE
  5
EF
330
1F
100
AcDbEntity
  8
0
  6
Continuous
 62
     7
370
    25
100
AcDbLine
 10
-151.8182562403
 20
-9.2244064001
 30
0.0
 11
-216.4182562403
 21
-9.2244064001
 31
0.0
  0
LINE
  5
F0
330
1F
100
AcDbEntity
  8
0
  6
Continuous
 62
     7
370
    25
100
AcDbLine
 10
-216.4182562403
 20
-9.2244064001
 30
0.0
 11
-216.4182562403
 21
30.7755935999
 31
0.0
  0
LINE
  5
F1
330
1F
100
AcDbEntity
  8
0
  6
Continuous
 62
     7
370
    25
100
AcDbLine
 10
-216.4182562403
 20
30.7755935999
 30
0.0
 11
-151.8182562403
 21
30.7755935999
 31
0.0
  0
LINE
  5
F2
330
1F
100
AcDbEntity
  8
0
  6
Continuous
 62
     7
370
    25
100
AcDbLine
 10
-151.8182562403
 20
30.7755935999
 30
0.0
 11
-151.8182562403
 21
-9.2244064001
 31
0.0
  0
ARC
  5
F3
330
1F
100
AcDbEntity
  8
0
  6
Continuous
 62
     7
370
    25
100
AcDbCircle
 10
-184.9682562403
 20
-20.4244064001
 30
0.0
 40
0.700000000000017
100
AcDbArc
 50
180.0
 51
270.0
  0
ARC
  5
F4
330
1F
100
AcDbEntity
  8
0
  6
Continuous
 62
     7
370
    25
100
AcDbCircle
 10
-183.2682562403
 20
-20.4244064001
 30
0.0
 40
0.9000000000000341
100
AcDbArc
 50
270.0
 51
0.0
  0
LINE
  5
F5
330
1F
100
AcDbEntity
  8
0
  6
Continuous
 62
     7
370
    25
100
AcDbLine
 10
-184.9682562403
 20
-21.1244064001
 30
0.0
 11
-183.2682562403
 21
-21.1244064001
 31
0.0
  0
ARC
  5
F6
330
1F
100
AcDbEntity
  8
0
  6
Continuous
 62
     7
370
    25
100
AcDbCircle
 10
-184.9682562403
 20
-20.2244064001
 30
0.0
 40
0.700000000000017
100
AcDbArc
 50
90.0
 51
180.0
  0
ARC
  5
F7
330
1F
100
AcDbEntity
  8
0
  6
Continuous
 62
     7
370
    25
100
AcDbCircle
 10
-183.2682562403
 20
-20.4244064001
 30
0.0
 40
0.700000000000017
100
AcDbArc
 50
270.0
 51
0.0
  0
LINE
  5
F8
330
1F
100
AcDbEntity
  8
0
  6
Continuous
 62
     7
370
    25
100
AcDbLine
 10
-183.2682562403
 20
-19.5244064001
 30
0.0
 11
-184.9682562403
 21
-19.5244064001
 31
0.0
  0
LINE
  5
F9
330
1F
100
AcDbEntity
  8
0
  6
Continuous
 62
     7
370
    25
100
AcDbLine
 10
-182.3682562403
 20
-20.4244064001
 30
0.0
 11
-182.3682562403
 21
-20.2244064001
 31
0.0
  0
ARC
  5
FA
330
1F
100
AcDbEntity
  8
0
  6
Continuous
 62
     7
370
    25
100
AcDbCircle
 10
-183.2682562403
 20
-20.2244064001
 30
0.0
 40
0.700000000000017
100
AcDbArc
 50
0.0
 51
90.0
  0
LINE
  5
FB
330
1F
100
AcDbEntity
  8
0
  6
Continuous
 62
     7
370
    25
100
AcDbLine
 10
-182.5682562403
 20
-20.4244064001
 30
0.0
 11
-182.5682562403
 21
-20.2244064001
 31
0.0
  0
ARC
  5
FC
330
1F
100
AcDbEntity
  8
0
  6
Continuous
 62
     7
370
    25
100
AcDbCircle
 10
-183.2682562403
 20
-20.2244064001
 30
0.0
 40
0.9000000000000341
100
AcDbArc
 50
0.0
 51
90.0
  0
LINE
  5
FD
330
1F
100
AcDbEntity
  8
0
  6
Continuous
 62
     7
370
    25
100
AcDbLine
 10
-185.6682562403
 20
-20.2244064001
 30
0.0
 11
-185.6682562403
 21
-20.4244064001
 31
0.0
  0
LINE
  5
FE
330
1F
100
AcDbEntity
  8
0
  6
Continuous
 62
     7
370
    25
100
AcDbLine
 10
-184.9682562403
 20
-21.3244064001
 30
0.0
 11
-183.2682562403
 21
-21.3244064001
 31
0.0
  0
LINE
  5
FF
330
1F
100
AcDbEntity
  8
0
  6
Continuous
 62
     7
370
    25
100
AcDbLine
 10
-185.8682562403
 20
-20.2244064001
 30
0.0
 11
-185.8682562403
 21
-20.4244064001
 31
0.0
  0
ARC
  5
100
330
1F
100
AcDbEntity
  8
0
  6
Continuous
 62
     7
370
    25
100
AcDbCircle
 10
-184.9682562403
 20
-20.2244064001
 30
0.0
 40
0.8999999999999986
100
AcDbArc
 50
90.0
 51
180.0
  0
LINE
  5
101
330
1F
100
AcDbEntity
  8
0
  6
Continuous
 62
     7
370
    25
100
AcDbLine
 10
-183.2682562403
 20
-19.3244064001
 30
0.0
 11
-184.9682562403
 21
-19.3244064001
 31
0.0
  0
ARC
  5
102
330
1F
100
AcDbEntity
  8
0
  6
Continuous
 62
     7
370
    25
100
AcDbCircle
 10
-184.9682562403
 20
-20.4244064001
 30
0.0
 40
0.9000000000000021
100
AcDbArc
 50
180.0
 51
270.0
  0
ARC
  5
103
330
1F
100
AcDbEntity
  8
0
  6
Continuous
 62
     7
370
    25
100
AcDbCircle
 10
-184.9682562403
 20
74.1755935999
 30
0.0
 40
0.700000000000017
100
AcDbArc
 50
90.0
 51
180.0
  0
LINE
  5
104
330
1F
100
AcDbEntity
  8
0
  6
Continuous
 62
     7
370
    25
100
AcDbLine
 10
-185.6682562403
 20
74.1755935999
 30
0.0
 11
-185.6682562403
 21
73.9755935999
 31
0.0
  0
LINE
  5
105
330
1F
100
AcDbEntity
  8
0
  6
Continuous
 62
     7
370
    25
100
AcDbLine
 10
-184.9682562403
 20
73.0755935999
 30
0.0
 11
-183.2682562403
 21
73.0755935999
 31
0.0
  0
ARC
  5
106
330
1F
100
AcDbEntity
  8
0
  6
Continuous
 62
     7
370
    25
100
AcDbCircle
 10
-184.9682562403
 20
73.9755935999
 30
0.0
 40
0.8999999999999915
100
AcDbArc
 50
180.0
 51
270.0
  0
LINE
  5
107
330
1F
100
AcDbEntity
  8
0
  6
Continuous
 62
     7
370
    25
100
AcDbLine
 10
-185.8682562403
 20
74.1755935999
 30
0.0
 11
-185.8682562403
 21
73.9755935999
 31
0.0
  0
ARC
  5
108
330
1F
100
AcDbEntity
  8
0
  6
Continuous
 62
     7
370
    25
100
AcDbCircle
 10
-184.9682562403
 20
74.1755935999
 30
0.0
 40
0.9000000000000057
100
AcDbArc
 50
90.0
 51
180.0
  0
LINE
  5
109
330
1F
100
AcDbEntity
  8
0
  6
Continuous
 62
     7
370
    25
100
AcDbLine
 10
-183.2682562403
 20
75.0755935999
 30
0.0
 11
-184.9682562403
 21
75.0755935999
 31
0.0
  0
ARC
  5
10A
330
1F
100
AcDbEntity
  8
0
  6
Continuous
 62
     7
370
    25
100
AcDbCircle
 10
-183.2682562403
 20
74.1755935999
 30
0.0
 40
0.9000000000000341
100
AcDbArc
 50
0.0
 51
90.0
  0
LINE
  5
10B
330
1F
100
AcDbEntity
  8
0
  6
Continuous
 62
     7
370
    25
100
AcDbLine
 10
-182.3682562403
 20
73.9755935999
 30
0.0
 11
-182.3682562403
 21
74.1755935999
 31
0.0
  0
ARC
  5
10C
330
1F
100
AcDbEntity
  8
0
  6
Continuous
 62
     7
370
    25
100
AcDbCircle
 10
-183.2682562403
 20
74.1755935999
 30
0.0
 40
0.700000000000017
100
AcDbArc
 50
0.0
 51
90.0
  0
ARC
  5
10D
330
1F
100
AcDbEntity
  8
0
  6
Continuous
 62
     7
370
    25
100
AcDbCircle
 10
-183.2682562403
 20
73.9755935999
 30
0.0
 40
0.9000000000000341
100
AcDbArc
 50
270.0
 51
0.0
  0
LINE
  5
10E
330
1F
100
AcDbEntity
  8
0
  6
Continuous
 62
     7
370
    25
100
AcDbLine
 10
-183.2682562403
 20
74.8755935999
 30
0.0
 11
-184.9682562403
 21
74.8755935999
 31
0.0
  0
ARC
  5
10F
330
1F
100
AcDbEntity
  8
0
  6
Continuous
 62
     7
370
    25
100
AcDbCircle
 10
-183.2682562403
 20
73.9755935999
 30
0.0
 40
0.700000000000017
100
AcDbArc
 50
270.0
 51
0.0
  0
LINE
  5
110
330
1F
100
AcDbEntity
  8
0
  6
Continuous
 62
     7
370
    25
100
AcDbLine
 10
-184.9682562403
 20
73.2755935999
 30
0.0
 11
-183.2682562403
 21
73.2755935999
 31
0.0
  0
ARC
  5
111
330
1F
100
AcDbEntity
  8
0
  6
Continuous
 62
     7
370
    25
100
AcDbCircle
 10
-184.9682562403
 20
73.9755935999
 30
0.0
 40
0.700000000000017
100
AcDbArc
 50
180.0
 51
270.0
  0
LINE
  5
112
330
1F
100
AcDbEntity
  8
0
  6
Continuous
 62
     7
370
    25
100
AcDbLine
 10
-182.5682562403
 20
73.9755935999
 30
0.0
 11
-182.5682562403
 21
74.1755935999
 31
0.0
  0
LINE
  5
113
330
1F
100
AcDbEntity
  8
0
  6
Continuous
 62
     7
370
    25
100
AcDbLine
 10
-184.9682562403
 20
-53.3244064001
 30
0.0
 11
-183.2682562403
 21
-53.3244064001
 31
0.0
  0
ARC
  5
114
330
1F
100
AcDbEntity
  8
0
  6
Continuous
 62
     7
370
    25
100
AcDbCircle
 10
-183.2682562403
 20
-52.6244064001
 30
0.0
 40
0.700000000000017
100
AcDbArc
 50
270.0
 51
0.0
  0
LINE
  5
115
330
1F
100
AcDbEntity
  8
0
  6
Continuous
 62
     7
370
    25
100
AcDbLine
 10
-182.5682562403
 20
-52.6244064001
 30
0.0
 11
-182.5682562403
 21
-52.4244064001
 31
0.0
  0
LINE
  5
116
330
1F
100
AcDbEntity
  8
0
  6
Continuous
 62
     7
370
    25
100
AcDbLine
 10
-183.2682562403
 20
-51.5244064001
 30
0.0
 11
-184.9682562403
 21
-51.5244064001
 31
0.0
  0
LINE
  5
117
330
1F
100
AcDbEntity
  8
0
  6
Continuous
 62
     7
370
    25
100
AcDbLine
 10
-185.8682562403
 20
-52.4244064001
 30
0.0
 11
-185.8682562403
 21
-52.6244064001
 31
0.0
  0
ARC
  5
118
330
1F
100
AcDbEntity
  8
0
  6
Continuous
 62
     7
370
    25
100
AcDbCircle
 10
-184.9682562403
 20
-52.6244064001
 30
0.0
 40
0.700000000000017
100
AcDbArc
 50
180.0
 51
270.0
  0
LINE
  5
119
330
1F
100
AcDbEntity
  8
0
  6
Continuous
 62
     7
370
    25
100
AcDbLine
 10
-184.9682562403
 20
-53.5244064001
 30
0.0
 11
-183.2682562403
 21
-53.5244064001
 31
0.0
  0
ARC
  5
11A
330
1F
100
AcDbEntity
  8
0
  6
Continuous
 62
     7
370
    25
100
AcDbCircle
 10
-184.9682562403
 20
-52.6244064001
 30
0.0
 40
0.8999999999999986
100
AcDbArc
 50
180.0
 51
270.0
  0
LINE
  5
11B
330
1F
100
AcDbEntity
  8
0
  6
Continuous
 62
     7
370
    25
100
AcDbLine
 10
-183.2682562403
 20
-51.7244064001
 30
0.0
 11
-184.9682562403
 21
-51.7244064001
 31
0.0
  0
ARC
  5
11C
330
1F
100
AcDbEntity
  8
0
  6
Continuous
 62
     7
370
    25
100
AcDbCircle
 10
-184.9682562403
 20
-52.4244064001
 30
0.0
 40
0.8999999999999986
100
AcDbArc
 50
90.0
 51
180.0
  0
LINE
  5
11D
330
1F
100
AcDbEntity
  8
0
  6
Continuous
 62
     7
370
    25
100
AcDbLine
 10
-185.6682562403
 20
-52.4244064001
 30
0.0
 11
-185.6682562403
 21
-52.6244064001
 31
0.0
  0
ARC
  5
11E
330
1F
100
AcDbEntity
  8
0
  6
Continuous
 62
     7
370
    25
100
AcDbCircle
 10
-183.2682562403
 20
-52.4244064001
 30
0.0
 40
0.700000000000017
100
AcDbArc
 50
0.0
 51
90.0
  0
ARC
  5
11F
330
1F
100
AcDbEntity
  8
0
  6
Continuous
 62
     7
370
    25
100
AcDbCircle
 10
-183.2682562403
 20
-52.4244064001
 30
0.0
 40
0.9000000000000341
100
AcDbArc
 50
0.0
 51
90.0
  0
LINE
  5
120
330
1F
100
AcDbEntity
  8
0
  6
Continuous
 62
     7
370
    25
100
AcDbLine
 10
-182.3682562403
 20
-52.6244064001
 30
0.0
 11
-182.3682562403
 21
-52.4244064001
 31
0.0
  0
ARC
  5
121
330
1F
100
AcDbEntity
  8
0
  6
Continuous
 62
     7
370
    25
100
AcDbCircle
 10
-183.2682562403
 20
-52.6244064001
 30
0.0
 40
0.9000000000000341
100
AcDbArc
 50
270.0
 51
0.0
  0
ARC
  5
122
330
1F
100
AcDbEntity
  8
0
  6
Continuous
 62
     7
370
    25
100
AcDbCircle
 10
-184.9682562403
 20
-52.4244064001
 30
0.0
 40
0.700000000000017
100
AcDbArc
 50
90.0
 51
180.0
  0
ARC
  5
123
330
1F
100
AcDbEntity
  8
0
  6
Continuous
 62
     7
370
    25
100
AcDbCircle
 10
-184.9682562403
 20
41.9755935999
 30
0.0
 40
0.8999999999999986
100
AcDbArc
 50
90.0
 51
180.0
  0
ARC
  5
124
330
1F
100
AcDbEntity
  8
0
  6
Continuous
 62
     7
370
    25
100
AcDbCircle
 10
-184.9682562403
 20
41.9755935999
 30
0.0
 40
0.700000000000017
100
AcDbArc
 50
90.0
 51
180.0
  0
LINE
  5
125
330
1F
100
AcDbEntity
  8
0
  6
Continuous
 62
     7
370
    25
100
AcDbLine
 10
-183.2682562403
 20
42.6755935999
 30
0.0
 11
-184.9682562403
 21
42.6755935999
 31
0.0
  0
LINE
  5
126
330
1F
100
AcDbEntity
  8
0
  6
Continuous
 62
     7
370
    25
100
AcDbLine
 10
-185.6682562403
 20
41.9755935999
 30
0.0
 11
-185.6682562403
 21
41.7755935999
 31
0.0
  0
LINE
  5
127
330
1F
100
AcDbEntity
  8
0
  6
Continuous
 62
     7
370
    25
100
AcDbLine
 10
-182.5682562403
 20
41.7755935999
 30
0.0
 11
-182.5682562403
 21
41.9755935999
 31
0.0
  0
LINE
  5
128
330
1F
100
AcDbEntity
  8
0
  6
Continuous
 62
     7
370
    25
100
AcDbLine
 10
-185.8682562403
 20
41.9755935999
 30
0.0
 11
-185.8682562403
 21
41.7755935999
 31
0.0
  0
LINE
  5
129
330
1F
100
AcDbEntity
  8
0
  6
Continuous
 62
     7
370
    25
100
AcDbLine
 10
-184.9682562403
 20
41.0755935999
 30
0.0
 11
-183.2682562403
 21
41.0755935999
 31
0.0
  0
ARC
  5
12A
330
1F
100
AcDbEntity
  8
0
  6
Continuous
 62
     7
370
    25
100
AcDbCircle
 10
-184.9682562403
 20
41.7755935999
 30
0.0
 40
0.700000000000017
100
AcDbArc
 50
180.0
 51
270.0
  0
LINE
  5
12B
330
1F
100
AcDbEntity
  8
0
  6
Continuous
 62
     7
370
    25
100
AcDbLine
 10
-182.3682562403
 20
41.7755935999
 30
0.0
 11
-182.3682562403
 21
41.9755935999
 31
0.0
  0
ARC
  5
12C
330
1F
100
AcDbEntity
  8
0
  6
Continuous
 62
     7
370
    25
100
AcDbCircle
 10
-183.2682562403
 20
41.7755935999
 30
0.0
 40
0.9000000000000341
100
AcDbArc
 50
270.0
 51
0.0
  0
ARC
  5
12D
330
1F
100
AcDbEntity
  8
0
  6
Continuous
 62
     7
370
    25
100
AcDbCircle
 10
-184.9682562403
 20
41.7755935999
 30
0.0
 40
0.8999999999999986
100
AcDbArc
 50
180.0
 51
270.0
  0
ARC
  5
12E
330
1F
100
AcDbEntity
  8
0
  6
Continuous
 62
     7
370
    25
100
AcDbCircle
 10
-183.2682562403
 20
41.9755935999
 30
0.0
 40
0.700000000000017
100
AcDbArc
 50
0.0
 51
90.0
  0
LINE
  5
12F
330
1F
100
AcDbEntity
  8
0
  6
Continuous
 62
     7
370
    25
100
AcDbLine
 10
-183.2682562403
 20
42.8755935999
 30
0.0
 11
-184.9682562403
 21
42.8755935999
 31
0.0
  0
LINE
  5
130
330
1F
100
AcDbEntity
  8
0
  6
Continuous
 62
     7
370
    25
100
AcDbLine
 10
-184.9682562403
 20
40.8755935999
 30
0.0
 11
-183.2682562403
 21
40.8755935999
 31
0.0
  0
ARC
  5
131
330
1F
100
AcDbEntity
  8
0
  6
Continuous
 62
     7
370
    25
100
AcDbCircle
 10
-183.2682562403
 20
41.9755935999
 30
0.0
 40
0.9000000000000341
100
AcDbArc
 50
0.0
 51
90.0
  0
ARC
  5
132
330
1F
100
AcDbEntity
  8
0
  6
Continuous
 62
     7
370
    25
100
AcDbCircle
 10
-183.2682562403
 20
41.7755935999
 30
0.0
 40
0.700000000000017
100
AcDbArc
 50
270.0
 51
0.0
  0
LINE
  5
133
330
1F
100
AcDbEntity
  8
0
  6
Continuous
 62
     7
370
    25
100
AcDbLine
 10
-216.1182562403
 20
-63.2744064001
 30
0.0
 11
-216.1182562403
 21
-9.5744064001
 31
0.0
  0
LINE
  5
134
330
1F
100
AcDbEntity
  8
0
  6
Continuous
 62
     7
370
    25
100
AcDbLine
 10
-216.1182562403
 20
-9.5744064001
 30
0.0
 11
-152.1182562403
 21
-9.5744064001
 31
0.0
  0
LINE
  5
135
330
1F
100
AcDbEntity
  8
0
  6
Continuous
 62
     7
370
    25
100
AcDbLine
 10
-152.1182562403
 20
-9.5744064001
 30
0.0
 11
-152.1182562403
 21
-63.2744064001
 31
0.0
  0
LINE
  5
136
330
1F
100
AcDbEntity
  8
0
  6
Continuous
 62
     7
370
    25
100
AcDbLine
 10
-152.1182562403
 20
-63.2744064001
 30
0.0
 11
-216.1182562403
 21
-63.2744064001
 31
0.0
  0
LINE
  5
137
330
1F
100
AcDbEntity
  8
0
  6
Continuous
 62
     7
370
    25
100
AcDbLine
 10
-216.1182562403
 20
84.8255935999
 30
0.0
 11
-152.1182562403
 21
84.8255935999
 31
0.0
  0
LINE
  5
138
330
1F
100
AcDbEntity
  8
0
  6
Continuous
 62
     7
370
    25
100
AcDbLine
 10
-152.1182562403
 20
84.8255935999
 30
0.0
 11
-152.1182562403
 21
31.1255935999
 31
0.0
  0
LINE
  5
139
330
1F
100
AcDbEntity
  8
0
  6
Continuous
 62
     7
370
    25
100
AcDbLine
 10
-152.1182562403
 20
31.1255935999
 30
0.0
 11
-216.1182562403
 21
31.1255935999
 31
0.0
  0
LINE
  5
13A
330
1F
100
AcDbEntity
  8
0
  6
Continuous
 62
     7
370
    25
100
AcDbLine
 10
-216.1182562403
 20
31.1255935999
 30
0.0
 11
-216.1182562403
 21
84.8255935999
 31
0.0
  0
LINE
  5
13B
330
1F
100
AcDbEntity
  8
0
  6
Continuous
 62
     7
370
    25
100
AcDbLine
 10
-152.1228842239
 20
-63.2697784165
 30
0.0
 11
-216.1136282568
 21
-63.2697784165
 31
0.0
  0
LINE
  5
13C
330
1F
100
AcDbEntity
  8
0
  6
Continuous
 62
     7
370
    25
100
AcDbLine
 10
-152.1228842239
 20
-9.5790343837
 30
0.0
 11
-152.1228842239
 21
-63.2697784165
 31
0.0
  0
LINE
  5
13D
330
1F
100
AcDbEntity
  8
0
  6
Continuous
 62
     7
370
    25
100
AcDbLine
 10
-216.1136282568
 20
-9.5790343837
 30
0.0
 11
-152.1228842239
 21
-9.5790343837
 31
0.0
  0
LINE
  5
13E
330
1F
100
AcDbEntity
  8
0
  6
Continuous
 62
     7
370
    25
100
AcDbLine
 10
-216.1136282568
 20
-63.2697784165
 30
0.0
 11
-216.1136282568
 21
-9.5790343837
 31
0.0
  0
LINE
  5
13F
330
1F
100
AcDbEntity
  8
0
  6
Continuous
 62
     7
370
    25
100
AcDbLine
 10
-216.4182562403
 20
-63.5744064001
 30
0.0
 11
-216.4182562403
 21
-9.2744064001
 31
0.0
  0
LINE
  5
140
330
1F
100
AcDbEntity
  8
0
  6
Continuous
 62
     7
370
    25
100
AcDbLine
 10
-216.4182562403
 20
-9.2744064001
 30
0.0
 11
-151.8182562403
 21
-9.2744064001
 31
0.0
  0
LINE
  5
141
330
1F
100
AcDbEntity
  8
0
  6
Continuous
 62
     7
370
    25
100
AcDbLine
 10
-151.8182562403
 20
-9.2744064001
 30
0.0
 11
-151.8182562403
 21
-63.5744064001
 31
0.0
  0
LINE
  5
142
330
1F
100
AcDbEntity
  8
0
  6
Continuous
 62
     7
370
    25
100
AcDbLine
 10
-151.8182562403
 20
-63.5744064001
 30
0.0
 11
-216.4182562403
 21
-63.5744064001
 31
0.0
  0
LINE
  5
143
330
1F
100
AcDbEntity
  8
0
  6
Continuous
 62
     7
370
    25
100
AcDbLine
 10
-152.1228842239
 20
84.8209656163
 30
0.0
 11
-152.1228842239
 21
31.1302215835
 31
0.0
  0
LINE
  5
144
330
1F
100
AcDbEntity
  8
0
  6
Continuous
 62
     7
370
    25
100
AcDbLine
 10
-152.1228842239
 20
31.1302215835
 30
0.0
 11
-216.1136282568
 21
31.1302215835
 31
0.0
  0
LINE
  5
145
330
1F
100
AcDbEntity
  8
0
  6
Continuous
 62
     7
370
    25
100
AcDbLine
 10
-216.1136282568
 20
84.8209656163
 30
0.0
 11
-152.1228842239
 21
84.8209656163
 31
0.0
  0
LINE
  5
146
330
1F
100
AcDbEntity
  8
0
  6
Continuous
 62
     7
370
    25
100
AcDbLine
 10
-216.1136282568
 20
31.1302215835
 30
0.0
 11
-216.1136282568
 21
84.8209656163
 31
0.0
  0
LINE
  5
147
330
1F
100
AcDbEntity
  8
0
  6
Continuous
 62
     7
370
    25
100
AcDbLine
 10
-151.8182562403
 20
85.1255935999
 30
0.0
 11
-151.8182562403
 21
30.8255935999
 31
0.0
  0
LINE
  5
148
330
1F
100
AcDbEntity
  8
0
  6
Continuous
 62
     7
370
    25
100
AcDbLine
 10
-151.8182562403
 20
30.8255935999
 30
0.0
 11
-216.4182562403
 21
30.8255935999
 31
0.0
  0
LINE
  5
149
330
1F
100
AcDbEntity
  8
0
  6
Continuous
 62
     7
370
    25
100
AcDbLine
 10
-216.4182562403
 20
30.8255935999
 30
0.0
 11
-216.4182562403
 21
85.1255935999
 31
0.0
  0
LINE
  5
14A
330
1F
100
AcDbEntity
  8
0
  6
Continuous
 62
     7
370
    25
100
AcDbLine
 10
-216.4182562403
 20
85.1255935999
 30
0.0
 11
-151.8182562403
 21
85.1255935999
 31
0.0
  0
LINE
  5
14B
330
1F
100
AcDbEntity
  8
0
  6
Continuous
 62
     7
370
    25
100
AcDbLine
 10
-151.7182562403
 20
84.7755935999
 30
0.0
 11
-151.7182562403
 21
-63.2244064001
 31
0.0
  0
LINE
  5
14C
330
1F
100
AcDbEntity
  8
0
  6
Continuous
 62
     7
370
    25
100
AcDbLine
 10
-151.3182562403
 20
84.7755935999
 30
0.0
 11
-151.7182562403
 21
84.7755935999
 31
0.0
  0
LINE
  5
14D
330
1F
100
AcDbEntity
  8
0
  6
Continuous
 62
     7
370
    25
100
AcDbLine
 10
-151.3182562403
 20
84.7755935999
 30
0.0
 11
-151.3182562403
 21
-63.2244064001
 31
0.0
  0
LINE
  5
14E
330
1F
100
AcDbEntity
  8
0
  6
Continuous
 62
     7
370
    25
100
AcDbLine
 10
-151.3182562403
 20
-63.2244064001
 30
0.0
 11
-151.7182562403
 21
-63.2244064001
 31
0.0
  0
LINE
  5
14F
330
1F
100
AcDbEntity
  8
0
  6
Continuous
 62
     7
370
    25
100
AcDbLine
 10
-159.6182562403
 20
30.8255935999
 30
0.0
 11
-159.6182562403
 21
30.7755935999
 31
0.0
  0
LINE
  5
150
330
1F
100
AcDbEntity
  8
0
  6
Continuous
 62
     7
370
    25
100
AcDbLine
 10
-159.6182562403
 20
-9.2244064001
 30
0.0
 11
-159.6182562403
 21
-9.2744064001
 31
0.0
  0
LINE
  5
151
330
1F
100
AcDbEntity
  8
0
  6
Continuous
 62
     7
370
    25
100
AcDbLine
 10
-151.8182562403
 20
-63.2244064001
 30
0.0
 11
-151.7182562403
 21
-63.2244064001
 31
0.0
  0
LINE
  5
152
330
1F
100
AcDbEntity
  8
0
  6
Continuous
 62
     7
370
    25
100
AcDbLine
 10
-151.8182562403
 20
84.7755935999
 30
0.0
 11
-151.7182562403
 21
84.7755935999
 31
0.0
  0
LINE
  5
153
330
1F
100
AcDbEntity
  8
0
  6
Continuous
 62
     7
370
    25
100
AcDbLine
 10
-163.6182562403
 20
30.8255935999
 30
0.0
 11
-163.6182562403
 21
30.7755935999
 31
0.0
  0
LINE
  5
154
330
1F
100
AcDbEntity
  8
0
  6
Continuous
 62
     7
370
    25
100
AcDbLine
 10
-163.6182562403
 20
-9.2244064001
 30
0.0
 11
-163.6182562403
 21
-9.2744064001
 31
0.0
  0
LINE
  5
155
330
1F
100
AcDbEntity
  8
0
  6
Continuous
 62
     7
370
    25
100
AcDbLine
 10
-159.0182562403
 20
-63.5744064001
 30
0.0
 11
-159.0182562403
 21
-63.7244064001
 31
0.0
  0
LINE
  5
156
330
1F
100
AcDbEntity
  8
0
  6
Continuous
 62
     7
370
    25
100
AcDbLine
 10
-159.5182562403
 20
-63.5744064001
 30
0.0
 11
-159.5182562403
 21
-63.7244064001
 31
0.0
  0
LINE
  5
157
330
1F
100
AcDbEntity
  8
0
  6
Continuous
 62
     7
370
    25
100
AcDbLine
 10
-164.2182562403
 20
-63.5744064001
 30
0.0
 11
-164.2182562403
 21
-63.7244064001
 31
0.0
  0
LINE
  5
158
330
1F
100
AcDbEntity
  8
0
  6
Continuous
 62
     7
370
    25
100
AcDbLine
 10
-163.7182562403
 20
-63.5744064001
 30
0.0
 11
-163.7182562403
 21
-63.7244064001
 31
0.0
  0
LINE
  5
159
330
1F
100
AcDbEntity
  8
0
  6
Continuous
 62
     7
370
    25
100
AcDbLine
 10
-159.5182562403
 20
85.2755935999
 30
0.0
 11
-159.5182562403
 21
85.1255935999
 31
0.0
  0
LINE
  5
15A
330
1F
100
AcDbEntity
  8
0
  6
Continuous
 62
     7
370
    25
100
AcDbLine
 10
-159.0182562403
 20
85.2755935999
 30
0.0
 11
-159.0182562403
 21
85.1255935999
 31
0.0
  0
LINE
  5
15B
330
1F
100
AcDbEntity
  8
0
  6
Continuous
 62
     7
370
    25
100
AcDbLine
 10
-164.2182562403
 20
85.2755935999
 30
0.0
 11
-164.2182562403
 21
85.1255935999
 31
0.0
  0
LINE
  5
15C
330
1F
100
AcDbEntity
  8
0
  6
Continuous
 62
     7
370
    25
100
AcDbLine
 10
-163.7182562403
 20
85.2755935999
 30
0.0
 11
-163.7182562403
 21
85.1255935999
 31
0.0
  0
LINE
  5
15D
330
1F
100
AcDbEntity
  8
0
  6
Continuous
 62
     7
370
    25
100
AcDbLine
 10
-141.1182562403
 20
85.2755935999
 30
0.0
 11
-141.1182562403
 21
85.6755935999
 31
0.0
  0
LINE
  5
15E
330
1F
100
AcDbEntity
  8
0
  6
Continuous
 62
     7
370
    25
100
AcDbLine
 10
-141.1182562403
 20
85.2755935999
 30
0.0
 11
-216.5182562403
 21
85.2755935999
 31
0.0
  0
LINE
  5
15F
330
1F
100
AcDbEntity
  8
0
  6
Continuous
 62
     7
370
    25
100
AcDbLine
 10
-216.5182562403
 20
85.2755935999
 30
0.0
 11
-216.5182562403
 21
85.6755935999
 31
0.0
  0
LINE
  5
160
330
1F
100
AcDbEntity
  8
0
  6
Continuous
 62
     7
370
    25
100
AcDbLine
 10
-141.1182562403
 20
85.6755935999
 30
0.0
 11
-216.5182562403
 21
85.6755935999
 31
0.0
  0
LINE
  5
161
330
1F
100
AcDbEntity
  8
0
  6
Continuous
 62
     7
370
    25
100
AcDbLine
 10
-207.0182562403
 20
85.1255935999
 30
0.0
 11
-207.0182562403
 21
85.2755935999
 31
0.0
  0
LINE
  5
162
330
1F
100
AcDbEntity
  8
0
  6
Continuous
 62
     7
370
    25
100
AcDbLine
 10
-166.1182562403
 20
85.2755935999
 30
0.0
 11
-166.1182562403
 21
85.1255935999
 31
0.0
  0
LINE
  5
163
330
1F
100
AcDbEntity
  8
0
  6
Continuous
 62
     7
370
    25
100
AcDbLine
 10
-141.1182562403
 20
-63.7244064001
 30
0.0
 11
-141.1182562403
 21
-64.1244064001
 31
0.0
  0
LINE
  5
164
330
1F
100
AcDbEntity
  8
0
  6
Continuous
 62
     7
370
    25
100
AcDbLine
 10
-141.1182562403
 20
-64.1244064001
 30
0.0
 11
-216.5182562403
 21
-64.1244064001
 31
0.0
  0
LINE
  5
165
330
1F
100
AcDbEntity
  8
0
  6
Continuous
 62
     7
370
    25
100
AcDbLine
 10
-141.1182562403
 20
-63.7244064001
 30
0.0
 11
-216.5182562403
 21
-63.7244064001
 31
0.0
  0
LINE
  5
166
330
1F
100
AcDbEntity
  8
0
  6
Continuous
 62
     7
370
    25
100
AcDbLine
 10
-216.5182562403
 20
-63.7244064001
 30
0.0
 11
-216.5182562403
 21
-64.1244064001
 31
0.0
  0
LINE
  5
167
330
1F
100
AcDbEntity
  8
0
  6
Continuous
 62
     7
370
    25
100
AcDbLine
 10
-166.1182562403
 20
-63.7244064001
 30
0.0
 11
-166.1182562403
 21
-63.5744064001
 31
0.0
  0
LINE
  5
168
330
1F
100
AcDbEntity
  8
0
  6
Continuous
 62
     7
370
    25
100
AcDbLine
 10
-207.0182562403
 20
-63.5744064001
 30
0.0
 11
-207.0182562403
 21
-63.7244064001
 31
0.0
  0
LINE
  5
169
330
1F
100
AcDbEntity
  8
0
  6
Continuous
 62
     7
370
    25
100
AcDbLine
 10
-216.9182562403
 20
-64.1244064001
 30
0.0
 11
-216.5182562403
 21
-64.1244064001
 31
0.0
  0
LINE
  5
16A
330
1F
100
AcDbEntity
  8
0
  6
Continuous
 62
     7
370
    25
100
AcDbLine
 10
-216.9182562403
 20
85.6755935999
 30
0.0
 11
-216.5182562403
 21
85.6755935999
 31
0.0
  0
LINE
  5
16B
330
1F
100
AcDbEntity
  8
0
  6
Continuous
 62
     7
370
    25
100
AcDbLine
 10
-216.5182562403
 20
-64.1244064001
 30
0.0
 11
-216.5182562403
 21
85.6755935999
 31
0.0
  0
LINE
  5
16C
330
1F
100
AcDbEntity
  8
0
  6
Continuous
 62
     7
370
    25
100
AcDbLine
 10
-216.9182562403
 20
-64.1244064001
 30
0.0
 11
-216.9182562403
 21
85.6755935999
 31
0.0
  0
LINE
  5
16D
330
1F
100
AcDbEntity
  8
0
  6
Continuous
 62
     7
370
    25
100
AcDbLine
 10
-207.0182562403
 20
-9.2744064001
 30
0.0
 11
-207.0182562403
 21
-9.2244064001
 31
0.0
  0
LINE
  5
16E
330
1F
100
AcDbEntity
  8
0
  6
Continuous
 62
     7
370
    25
100
AcDbLine
 10
-207.0182562403
 20
30.7755935999
 30
0.0
 11
-207.0182562403
 21
30.8255935999
 31
0.0
  0
LINE
  5
16F
330
1F
100
AcDbEntity
  8
0
  6
Continuous
 62
     7
370
    25
100
AcDbLine
 10
-96.2182562403
 20
65.9755935999
 30
0.0
 11
-96.2182562403
 21
-44.4244064001
 31
0.0
  0
LINE
  5
170
330
1F
100
AcDbEntity
  8
0
  6
Continuous
 62
     7
370
    25
100
AcDbLine
 10
-104.7993159621
 20
65.9755935999
 30
0.0
 11
-104.7993159621
 21
-44.4244064001
 31
0.0
  0
CIRCLE
  5
171
330
1F
100
AcDbEntity
  8
0
  6
Continuous
 62
     7
370
    25
100
AcDbCircle
 10
-100.7182562403
 20
-43.4244064001
 30
0.0
 40
0.5999999999999943
  0
CIRCLE
  5
172
330
1F
100
AcDbEntity
  8
0
  6
Continuous
 62
     7
370
    25
100
AcDbCircle
 10
-100.7182562403
 20
64.9755935999
 30
0.0
 40
0.5999999999999943
  0
LINE
  5
173
330
1F
100
AcDbEntity
  8
0
  6
Continuous
 62
     7
370
    25
100
AcDbLine
 10
-151.8182562403
 20
84.9755935999
 30
0.0
 11
-151.2182562403
 21
84.9755935999
 31
0.0
  0
LINE
  5
174
330
1F
100
AcDbEntity
  8
0
  6
Continuous
 62
     7
370
    25
100
AcDbLine
 10
-151.2182562403
 20
-54.8433466783
 30
0.0
 11
-151.3182562403
 21
-54.8433466783
 31
0.0
  0
LINE
  5
175
330
1F
100
AcDbEntity
  8
0
  6
Continuous
 62
     7
370
    25
100
AcDbLine
 10
-151.8182562403
 20
-63.4244064001
 30
0.0
 11
-151.2182562403
 21
-63.4244064001
 31
0.0
  0
LINE
  5
176
330
1F
100
AcDbEntity
  8
0
  6
Continuous
 62
     7
370
    25
100
AcDbLine
 10
-151.3182562403
 20
76.3945338781
 30
0.0
 11
-151.2182562403
 21
76.3945338781
 31
0.0
  0
LINE
  5
177
330
1F
100
AcDbEntity
  8
0
  6
PHANTOM
 62
     1
370
    18
100
AcDbLine
 10
-128.7182562403
 20
-36.558009588
 30
0.0
 11
-123.7182562403
 21
-36.558009588
 31
0.0
  0
LINE
  5
178
330
1F
100
AcDbEntity
  8
0
  6
PHANTOM
 62
     1
370
    18
100
AcDbLine
 10
-123.7182562403
 20
58.1091967878
 30
0.0
 11
-128.7182562403
 21
58.1091967878
 31
0.0
  0
LINE
  5
179
330
1F
100
AcDbEntity
  8
0
  6
PHANTOM
 62
     1
370
    18
100
AcDbLine
 10
-163.1182562403
 20
30.8255935999
 30
0.0
 11
-163.1182562403
 21
30.7755935999
 31
0.0
  0
LINE
  5
17A
330
1F
100
AcDbEntity
  8
0
  6
PHANTOM
 62
     1
370
    18
100
AcDbLine
 10
-163.1182562403
 20
-9.2244064001
 30
0.0
 11
-163.1182562403
 21
-9.2744064001
 31
0.0
  0
LINE
  5
17B
330
1F
100
AcDbEntity
  8
0
  6
PHANTOM
 62
     1
370
    18
100
AcDbLine
 10
-160.1182562403
 20
30.8255935999
 30
0.0
 11
-160.1182562403
 21
30.7755935999
 31
0.0
  0
LINE
  5
17C
330
1F
100
AcDbEntity
  8
0
  6
PHANTOM
 62
     1
370
    18
100
AcDbLine
 10
-160.1182562403
 20
-9.2244064001
 30
0.0
 11
-160.1182562403
 21
-9.2744064001
 31
0.0
  0
LINE
  5
17D
330
1F
100
AcDbEntity
  8
0
  6
PHANTOM
 62
     1
370
    18
100
AcDbLine
 10
-216.2182562403
 20
-63.7244064001
 30
0.0
 11
-216.2182562403
 21
-63.5744064001
 31
0.0
  0
LINE
  5
17E
330
1F
100
AcDbEntity
  8
0
  6
PHANTOM
 62
     1
370
    18
100
AcDbLine
 10
-216.2182562403
 20
-9.2744064001
 30
0.0
 11
-216.2182562403
 21
-9.2244064001
 31
0.0
  0
LINE
  5
17F
330
1F
100
AcDbEntity
  8
0
  6
PHANTOM
 62
     1
370
    18
100
AcDbLine
 10
-216.2182562403
 20
30.7755935999
 30
0.0
 11
-216.2182562403
 21
30.8255935999
 31
0.0
  0
LINE
  5
180
330
1F
100
AcDbEntity
  8
0
  6
PHANTOM
 62
     1
370
    18
100
AcDbLine
 10
-216.2182562403
 20
85.1255935999
 30
0.0
 11
-216.2182562403
 21
85.2755935999
 31
0.0
  0
LINE
  5
181
330
1F
100
AcDbEntity
  8
0
  6
PHANTOM
 62
     7
370
    35
100
AcDbLine
 10
-81.6742562403
 20
10.7755935999
 30
0.0
 11
-231.9622562403
 21
10.7755935999
 31
0.0
  0
LINE
  5
182
330
1F
100
AcDbEntity
  8
0
  6
Continuous
 62
     7
370
    35
100
AcDbLine
 10
-83.6742562403
 20
-1.2244064001
 30
0.0
 11
-83.6742562403
 21
10.7755935999
 31
0.0
  0
SOLID
  5
183
330
1F
100
AcDbEntity
  8
0
  6
Continuous
 62
     7
370
    35
100
AcDbTrace
 10
-83.6742562403
 20
10.7755935999
 30
0.0
 11
-85.1742562403
 21
4.7755935999
 31
0.0
 12
-82.1742562403
 22
4.7755935999
 32
0.0
 13
-82.1742562403
 23
4.7755935999
 33
0.0
  0
LINE
  5
184
330
1F
100
AcDbEntity
  8
0
  6
Continuous
 62
     7
370
    35
100
AcDbLine
 10
-229.9622562403
 20
-1.2244064001
 30
0.0
 11
-229.9622562403
 21
10.7755935999
 31
0.0
  0
SOLID
  5
185
330
1F
100
AcDbEntity
  8
0
  6
Continuous
 62
     7
370
    35
100
AcDbTrace
 10
-229.9622562403
 20
10.7755935999
 30
0.0
 11
-231.4622562403
 21
4.7755935999
 31
0.0
 12
-228.4622562403
 22
4.7755935999
 32
0.0
 13
-228.4622562403
 23
4.7755935999
 33
0.0
  0
MTEXT
  5
187
330
1F
100
AcDbEntity
  8
0
  6
Continuous
 62
     7
100
AcDbMText
 10
-81.1702766427
 20
8.8598944408
 30
0.0
 40
6.35
 41
0.0
 46
0.0
 71
     1
 72
     1
  1
A
  7
SLDTEXTSTYLE0
 73
     1
 44
1.0
  0
MTEXT
  5
188
330
1F
100
AcDbEntity
  8
0
  6
Continuous
 62
     7
100
AcDbMText
 10
-238.7261848321
 20
8.8598944408
 30
0.0
 40
6.35
 41
0.0
 46
0.0
 71
     1
 72
     1
  1
A
  7
SLDTEXTSTYLE0
 73
     1
 44
1.0
  0
LINE
  5
189
330
1F
100
AcDbEntity
  8
0
  6
PHANTOM
 62
     7
370
    35
100
AcDbLine
 10
-151.2182562403
 20
109.7731129481
 30
0.0
 11
-151.2182562403
 21
-77.6454543749
 31
0.0
  0
LINE
  5
18A
330
1F
100
AcDbEntity
  8
0
  6
Continuous
 62
     7
370
    35
100
AcDbLine
 10
-163.2182562403
 20
107.7731129481
 30
0.0
 11
-151.2182562403
 21
107.7731129481
 31
0.0
  0
SOLID
  5
18B
330
1F
100
AcDbEntity
  8
0
  6
Continuous
 62
     7
370
    35
100
AcDbTrace
 10
-151.2182562403
 20
107.7731129481
 30
0.0
 11
-157.2182562403
 21
109.2731129481
 31
0.0
 12
-157.2182562403
 22
106.2731129481
 32
0.0
 13
-157.2182562403
 23
106.2731129481
 33
0.0
  0
LINE
  5
18C
330
1F
100
AcDbEntity
  8
0
  6
Continuous
 62
     7
370
    35
100
AcDbLine
 10
-163.2182562403
 20
-75.6454543749
 30
0.0
 11
-151.2182562403
 21
-75.6454543749
 31
0.0
  0
SOLID
  5
18D
330
1F
100
AcDbEntity
  8
0
  6
Continuous
 62
     7
370
    35
100
AcDbTrace
 10
-151.2182562403
 20
-75.6454543749
 30
0.0
 11
-157.2182562403
 21
-74.1454543749
 31
0.0
 12
-157.2182562403
 22
-77.1454543749
 32
0.0
 13
-157.2182562403
 23
-77.1454543749
 33
0.0
  0
MTEXT
  5
18E
330
1F
100
AcDbEntity
  8
0
  6
Continuous
 62
     7
100
AcDbMText
 10
-163.2182562403
 20
117.857413789
 30
0.0
 40
6.35
 41
0.0
 46
0.0
 71
     1
 72
     1
  1
B
  7
SLDTEXTSTYLE0
 73
     1
 44
1.0
  0
MTEXT
  5
18F
330
1F
100
AcDbEntity
  8
0
  6
Continuous
 62
     7
100
AcDbMText
 10
-163.2182562403
 20
-79.0035265549
 30
0.0
 40
6.35
 41
0.0
 46
0.0
 71
     1
 72
     1
  1
B
  7
SLDTEXTSTYLE0
 73
     1
 44
1.0
  0
LINE
  5
190
330
1F
100
AcDbEntity
  8
0
  6
Continuous
 62
     7
370
    25
100
AcDbLine
 10
-127.7182562403
 20
391.5181558606
 30
0.0
 11
-127.7182562403
 21
390.5181558606
 31
0.0
  0
LINE
  5
191
330
1F
100
AcDbEntity
  8
0
  6
Continuous
 62
     7
370
    25
100
AcDbLine
 10
-124.7182562403
 20
391.5181558606
 30
0.0
 11
-127.7182562403
 21
391.5181558606
 31
0.0
  0
LINE
  5
192
330
1F
100
AcDbEntity
  8
0
  6
Continuous
 62
     7
370
    25
100
AcDbLine
 10
-124.7182562403
 20
390.5181558606
 30
0.0
 11
-124.7182562403
 21
391.5181558606
 31
0.0
  0
ARC
  5
193
330
1F
100
AcDbEntity
  8
0
  6
Continuous
 62
     7
370
    25
100
AcDbCircle
 10
-126.2182562403
 20
390.1681558606
 30
0.0
 40
0.6500000000000256
100
AcDbArc
 50
32.5789703928
 51
147.4210296072
  0
LINE
  5
194
330
1F
100
AcDbEntity
  8
0
  6
Continuous
 62
     7
370
    25
100
AcDbLine
 10
-141.1182562403
 20
390.5181558606
 30
0.0
 11
-96.2182562403
 21
390.5181558606
 31
0.0
  0
LINE
  5
195
330
1F
100
AcDbEntity
  8
0
  6
Continuous
 62
     7
370
    25
100
AcDbLine
 10
-96.2182562403
 20
390.5181558606
 30
0.0
 11
-96.2182562403
 21
383.5181558606
 31
0.0
  0
LINE
  5
196
330
1F
100
AcDbEntity
  8
0
  6
Continuous
 62
     7
370
    25
100
AcDbLine
 10
-141.1182562403
 20
383.5181558606
 30
0.0
 11
-96.2182562403
 21
383.5181558606
 31
0.0
  0
LINE
  5
197
330
1F
100
AcDbEntity
  8
0
  6
Continuous
 62
     7
370
    25
100
AcDbLine
 10
-215.1839673754
 20
403.9181558606
 30
0.0
 11
-215.2368654696
 21
404.2181558606
 31
0.0
  0
LINE
  5
198
330
1F
100
AcDbEntity
  8
0
  6
Continuous
 62
     7
370
    25
100
AcDbLine
 10
-141.1182562403
 20
410.9181558606
 30
0.0
 11
-216.5182562403
 21
410.9181558606
 31
0.0
  0
LINE
  5
199
330
1F
100
AcDbEntity
  8
0
  6
Continuous
 62
     7
370
    25
100
AcDbLine
 10
-141.1182562403
 20
377.9181558606
 30
0.0
 11
-141.1182562403
 21
410.9181558606
 31
0.0
  0
LINE
  5
19A
330
1F
100
AcDbEntity
  8
0
  6
Continuous
 62
     7
370
    25
100
AcDbLine
 10
-166.1182562403
 20
377.9181558606
 30
0.0
 11
-141.1182562403
 21
377.9181558606
 31
0.0
  0
LINE
  5
19B
330
1F
100
AcDbEntity
  8
0
  6
Continuous
 62
     7
370
    25
100
AcDbLine
 10
-166.1182562403
 20
403.9181558606
 30
0.0
 11
-166.1182562403
 21
377.9181558606
 31
0.0
  0
LINE
  5
19C
330
1F
100
AcDbEntity
  8
0
  6
Continuous
 62
     7
370
    25
100
AcDbLine
 10
-166.1182562403
 20
403.9181558606
 30
0.0
 11
-165.9982562403
 21
403.9181558606
 31
0.0
  0
LINE
  5
19D
330
1F
100
AcDbEntity
  8
0
  6
Continuous
 62
     7
370
    25
100
AcDbLine
 10
-165.9982562403
 20
403.9181558606
 30
0.0
 11
-165.9982562403
 21
404.3381558606
 31
0.0
  0
ARC
  5
19E
330
1F
100
AcDbEntity
  8
0
  6
Continuous
 62
     7
370
    25
100
AcDbCircle
 10
-166.0582562403
 20
404.3381558606
 30
0.0
 40
0.0600000000000023
100
AcDbArc
 50
0.0
 51
180.0
  0
LINE
  5
19F
330
1F
100
AcDbEntity
  8
0
  6
Continuous
 62
     7
370
    25
100
AcDbLine
 10
-166.1182562403
 20
404.3381558606
 30
0.0
 11
-166.1182562403
 21
404.2181558606
 31
0.0
  0
LINE
  5
1A0
330
1F
100
AcDbEntity
  8
0
  6
Continuous
 62
     7
370
    25
100
AcDbLine
 10
-216.5182562403
 20
404.2181558606
 30
0.0
 11
-207.0182562403
 21
404.2181558606
 31
0.0
  0
LINE
  5
1A1
330
1F
100
AcDbEntity
  8
0
  6
Continuous
 62
     7
370
    25
100
AcDbLine
 10
-216.5182562403
 20
410.9181558606
 30
0.0
 11
-216.5182562403
 21
404.2181558606
 31
0.0
  0
LINE
  5
1A2
330
1F
100
AcDbEntity
  8
0
  6
Continuous
 62
     7
370
    25
100
AcDbLine
 10
-207.0182562403
 20
403.5181558606
 30
0.0
 11
-166.1182562403
 21
403.5181558606
 31
0.0
  0
LINE
  5
1A3
330
1F
100
AcDbEntity
  8
0
  6
Continuous
 62
     7
370
    25
100
AcDbLine
 10
-207.0182562403
 20
403.9181558606
 30
0.0
 11
-207.0182562403
 21
404.2181558606
 31
0.0
  0
LINE
  5
1A4
330
1F
100
AcDbEntity
  8
0
  6
Continuous
 62
     7
370
    25
100
AcDbLine
 10
-166.1182562403
 20
404.2181558606
 30
0.0
 11
-166.1182562403
 21
403.9181558606
 31
0.0
  0
LINE
  5
1A5
330
1F
100
AcDbEntity
  8
0
  6
Continuous
 62
     7
370
    25
100
AcDbLine
 10
-207.0182562403
 20
403.5181558606
 30
0.0
 11
-207.0182562403
 21
403.9181558606
 31
0.0
  0
LINE
  5
1A6
330
1F
100
AcDbEntity
  8
0
  6
Continuous
 62
     7
370
    25
100
AcDbLine
 10
-216.2182562403
 20
403.5181558606
 30
0.0
 11
-207.0182562403
 21
403.5181558606
 31
0.0
  0
LINE
  5
1A7
330
1F
100
AcDbEntity
  8
0
  6
Continuous
 62
     7
370
    25
100
AcDbLine
 10
-216.2182562403
 20
403.9181558606
 30
0.0
 11
-207.0182562403
 21
403.9181558606
 31
0.0
  0
LINE
  5
1A8
330
1F
100
AcDbEntity
  8
0
  6
Continuous
 62
     7
370
    25
100
AcDbLine
 10
-216.9182562403
 20
404.2181558606
 30
0.0
 11
-216.9182562403
 21
410.9181558606
 31
0.0
  0
LINE
  5
1A9
330
1F
100
AcDbEntity
  8
0
  6
Continuous
 62
     7
370
    25
100
AcDbLine
 10
-216.9182562403
 20
410.9181558606
 30
0.0
 11
-216.5182562403
 21
410.9181558606
 31
0.0
  0
ARC
  5
1AA
330
1F
100
AcDbEntity
  8
0
  6
Continuous
 62
     7
370
    25
100
AcDbCircle
 10
-216.2182562403
 20
404.2181558606
 30
0.0
 40
0.7000000000000455
100
AcDbArc
 50
180.0
 51
270.0
  0
ARC
  5
1AB
330
1F
100
AcDbEntity
  8
0
  6
Continuous
 62
     7
370
    25
100
AcDbCircle
 10
-216.2182562403
 20
404.2181558606
 30
0.0
 40
0.3000000000000114
100
AcDbArc
 50
180.0
 51
270.0
  0
LINE
  5
1AC
330
1F
100
AcDbEntity
  8
0
  6
Continuous
 62
     7
370
    25
100
AcDbLine
 10
-216.2182562403
 20
403.5181558606
 30
0.0
 11
-216.2182562403
 21
311.5181558606
 31
0.0
  0
LINE
  5
1AD
330
1F
100
AcDbEntity
  8
0
  6
Continuous
 62
     7
370
    25
100
AcDbLine
 10
-96.2182562403
 20
383.5181558606
 30
0.0
 11
-96.2182562403
 21
311.5181558606
 31
0.0
  0
LINE
  5
1AE
330
1F
100
AcDbEntity
  8
0
  6
Continuous
 62
     7
370
    25
100
AcDbLine
 10
-216.2182562403
 20
311.5181558606
 30
0.0
 11
-96.2182562403
 21
311.5181558606
 31
0.0
  0
LINE
  5
1AF
330
1F
100
AcDbEntity
  8
0
  6
PHANTOM
 62
     1
370
    18
100
AcDbLine
 10
-207.0182562403
 20
404.2181558606
 30
0.0
 11
-166.1182562403
 21
404.2181558606
 31
0.0
  0
LINE
  5
1B0
330
1F
100
AcDbEntity
  8
0
  6
PHANTOM
 62
     1
370
    18
100
AcDbLine
 10
-216.2182562403
 20
403.9181558606
 30
0.0
 11
-216.2182562403
 21
403.5181558606
 31
0.0
  0
LINE
  5
1B1
330
1F
100
AcDbEntity
  8
0
  6
PHANTOM
 62
     1
370
    18
100
AcDbLine
 10
-216.5182562403
 20
404.2181558606
 30
0.0
 11
-216.9182562403
 21
404.2181558606
 31
0.0
  0
LINE
  5
1B2
330
1F
100
AcDbEntity
  8
0
  6
Continuous
 62
     7
370
    25
100
AcDbLine
 10
538.6632694403
 20
-63.4244064001
 30
0.0
 11
538.6632694403
 21
-63.7244064001
 31
0.0
  0
LINE
  5
1B3
330
1F
100
AcDbEntity
  8
0
  6
Continuous
 62
     7
370
    25
100
AcDbLine
 10
545.6632694403
 20
-63.4244064001
 30
0.0
 11
545.6632694403
 21
-63.7244064001
 31
0.0
  0
LINE
  5
1B4
330
1F
100
AcDbEntity
  8
0
  6
Continuous
 62
     7
370
    25
100
AcDbLine
 10
538.6632694403
 20
85.2755935999
 30
0.0
 11
538.6632694403
 21
84.9755935999
 31
0.0
  0
LINE
  5
1B5
330
1F
100
AcDbEntity
  8
0
  6
Continuous
 62
     7
370
    25
100
AcDbLine
 10
545.6632694403
 20
85.2755935999
 30
0.0
 11
545.6632694403
 21
84.9755935999
 31
0.0
  0
LINE
  5
1B6
330
1F
100
AcDbEntity
  8
0
  6
Continuous
 62
     7
370
    25
100
AcDbLine
 10
521.1632694403
 20
85.2755935999
 30
0.0
 11
521.1632694403
 21
85.6755935999
 31
0.0
  0
LINE
  5
1B7
330
1F
100
AcDbEntity
  8
0
  6
Continuous
 62
     7
370
    25
100
AcDbLine
 10
546.7632694403
 20
85.2755935999
 30
0.0
 11
521.1632694403
 21
85.2755935999
 31
0.0
  0
LINE
  5
1B8
330
1F
100
AcDbEntity
  8
0
  6
Continuous
 62
     7
370
    25
100
AcDbLine
 10
546.7632694403
 20
85.6755935999
 30
0.0
 11
521.1632694403
 21
85.6755935999
 31
0.0
  0
LINE
  5
1B9
330
1F
100
AcDbEntity
  8
0
  6
Continuous
 62
     7
370
    25
100
AcDbLine
 10
521.1632694403
 20
-63.7244064001
 30
0.0
 11
521.1632694403
 21
-64.1244064001
 31
0.0
  0
LINE
  5
1BA
330
1F
100
AcDbEntity
  8
0
  6
Continuous
 62
     7
370
    25
100
AcDbLine
 10
546.7632694403
 20
-63.7244064001
 30
0.0
 11
521.1632694403
 21
-63.7244064001
 31
0.0
  0
LINE
  5
1BB
330
1F
100
AcDbEntity
  8
0
  6
Continuous
 62
     7
370
    25
100
AcDbLine
 10
546.7632694403
 20
-64.1244064001
 30
0.0
 11
521.1632694403
 21
-64.1244064001
 31
0.0
  0
LINE
  5
1BC
330
1F
100
AcDbEntity
  8
0
  6
Continuous
 62
     7
370
    25
100
AcDbLine
 10
546.7632694403
 20
85.6755935999
 30
0.0
 11
547.4632694403
 21
85.6755935999
 31
0.0
  0
LINE
  5
1BD
330
1F
100
AcDbEntity
  8
0
  6
Continuous
 62
     7
370
    25
100
AcDbLine
 10
547.4632694403
 20
-64.1244064001
 30
0.0
 11
546.7632694403
 21
-64.1244064001
 31
0.0
  0
LINE
  5
1BE
330
1F
100
AcDbEntity
  8
0
  6
Continuous
 62
     7
370
    25
100
AcDbLine
 10
546.7632694403
 20
-64.1244064001
 30
0.0
 11
546.7632694403
 21
85.6755935999
 31
0.0
  0
LINE
  5
1BF
330
1F
100
AcDbEntity
  8
0
  6
Continuous
 62
     7
370
    25
100
AcDbLine
 10
554.1632694403
 20
85.6755935999
 30
0.0
 11
547.4632694403
 21
85.6755935999
 31
0.0
  0
LINE
  5
1C0
330
1F
100
AcDbEntity
  8
0
  6
Continuous
 62
     7
370
    25
100
AcDbLine
 10
554.1632694403
 20
-64.1244064001
 30
0.0
 11
554.1632694403
 21
85.6755935999
 31
0.0
  0
LINE
  5
1C1
330
1F
100
AcDbEntity
  8
0
  6
Continuous
 62
     7
370
    25
100
AcDbLine
 10
547.4632694403
 20
-64.1244064001
 30
0.0
 11
554.1632694403
 21
-64.1244064001
 31
0.0
  0
LINE
  5
1C2
330
1F
100
AcDbEntity
  8
0
  6
Continuous
 62
     7
370
    25
100
AcDbLine
 10
546.7632694403
 20
84.9755935999
 30
0.0
 11
546.7632694403
 21
-63.4244064001
 31
0.0
  0
LINE
  5
1C3
330
1F
100
AcDbEntity
  8
0
  6
Continuous
 62
     7
370
    25
100
AcDbLine
 10
546.7632694403
 20
-63.4244064001
 30
0.0
 11
454.7632694403
 21
-63.4244064001
 31
0.0
  0
LINE
  5
1C4
330
1F
100
AcDbEntity
  8
0
  6
Continuous
 62
     7
370
    25
100
AcDbLine
 10
454.7632694403
 20
84.9755935999
 30
0.0
 11
454.7632694403
 21
-63.4244064001
 31
0.0
  0
LINE
  5
1C5
330
1F
100
AcDbEntity
  8
0
  6
Continuous
 62
     7
370
    25
100
AcDbLine
 10
546.7632694403
 20
84.9755935999
 30
0.0
 11
454.7632694403
 21
84.9755935999
 31
0.0
  0
LINE
  5
1C6
330
1F
100
AcDbEntity
  8
0
  6
PHANTOM
 62
     1
370
    18
100
AcDbLine
 10
547.4632694403
 20
-64.1244064001
 30
0.0
 11
547.4632694403
 21
85.6755935999
 31
0.0
  0
LINE
  5
1C7
330
1F
100
AcDbEntity
  8
0
  6
Continuous
 62
     7
370
    25
100
AcDbLine
 10
-153.2996470111
 20
280.2619826822
 30
0.0
 11
-152.1182562403
 21
286.9619826822
 31
0.0
  0
LINE
  5
1C8
330
1F
100
AcDbEntity
  8
0
  6
Continuous
 62
     7
370
    25
100
AcDbLine
 10
-214.9368654696
 20
280.2619826822
 30
0.0
 11
-153.2996470111
 21
280.2619826822
 31
0.0
  0
LINE
  5
1C9
330
1F
100
AcDbEntity
  8
0
  6
Continuous
 62
     7
370
    25
100
AcDbLine
 10
-216.1182562403
 20
286.9619826822
 30
0.0
 11
-214.9368654696
 21
280.2619826822
 31
0.0
  0
LINE
  5
1CA
330
1F
100
AcDbEntity
  8
0
  6
Continuous
 62
     7
370
    25
100
AcDbLine
 10
-216.1182562403
 20
286.9619826822
 30
0.0
 11
-152.1182562403
 21
286.9619826822
 31
0.0
  0
LINE
  5
1CB
330
1F
100
AcDbEntity
  8
0
  6
Continuous
 62
     7
370
    25
100
AcDbLine
 10
-216.1136282568
 20
286.9619826822
 30
0.0
 11
-214.932237486
 21
280.2619826822
 31
0.0
  0
LINE
  5
1CC
330
1F
100
AcDbEntity
  8
0
  6
Continuous
 62
     7
370
    25
100
AcDbLine
 10
-209.1839673754
 20
279.9619826822
 30
0.0
 11
-209.1839673754
 21
280.2619826822
 31
0.0
  0
LINE
  5
1CD
330
1F
100
AcDbEntity
  8
0
  6
Continuous
 62
     7
370
    25
100
AcDbLine
 10
-216.4182562403
 20
286.9619826822
 30
0.0
 11
-215.1839673754
 21
279.9619826822
 31
0.0
  0
LINE
  5
1CE
330
1F
100
AcDbEntity
  8
0
  6
Continuous
 62
     7
370
    25
100
AcDbLine
 10
-215.1839673754
 20
279.9619826822
 30
0.0
 11
-209.1839673754
 21
279.9619826822
 31
0.0
  0
LINE
  5
1CF
330
1F
100
AcDbEntity
  8
0
  6
Continuous
 62
     7
370
    25
100
AcDbLine
 10
-214.932237486
 20
280.2619826822
 30
0.0
 11
-209.1839673754
 21
280.2619826822
 31
0.0
  0
LINE
  5
1D0
330
1F
100
AcDbEntity
  8
0
  6
Continuous
 62
     7
370
    25
100
AcDbLine
 10
-216.4182562403
 20
286.9619826822
 30
0.0
 11
-216.1136282568
 21
286.9619826822
 31
0.0
  0
LINE
  5
1D1
330
1F
100
AcDbEntity
  8
0
  6
Continuous
 62
     7
370
    25
100
AcDbLine
 10
-153.0525451053
 20
279.9619826822
 30
0.0
 11
-151.8182562403
 21
286.9619826822
 31
0.0
  0
LINE
  5
1D2
330
1F
100
AcDbEntity
  8
0
  6
Continuous
 62
     7
370
    25
100
AcDbLine
 10
-159.0525451053
 20
280.2619826822
 30
0.0
 11
-159.0525451053
 21
279.9619826822
 31
0.0
  0
LINE
  5
1D3
330
1F
100
AcDbEntity
  8
0
  6
Continuous
 62
     7
370
    25
100
AcDbLine
 10
-153.3042749946
 20
280.2619826822
 30
0.0
 11
-152.1228842239
 21
286.9619826822
 31
0.0
  0
LINE
  5
1D4
330
1F
100
AcDbEntity
  8
0
  6
Continuous
 62
     7
370
    25
100
AcDbLine
 10
-159.0525451053
 20
279.9619826822
 30
0.0
 11
-153.0525451053
 21
279.9619826822
 31
0.0
  0
LINE
  5
1D5
330
1F
100
AcDbEntity
  8
0
  6
Continuous
 62
     7
370
    25
100
AcDbLine
 10
-159.0525451053
 20
280.2619826822
 30
0.0
 11
-153.3042749946
 21
280.2619826822
 31
0.0
  0
LINE
  5
1D6
330
1F
100
AcDbEntity
  8
0
  6
Continuous
 62
     7
370
    25
100
AcDbLine
 10
-152.1228842239
 20
286.9619826822
 30
0.0
 11
-151.8182562403
 21
286.9619826822
 31
0.0
  0
LINE
  5
1D7
330
1F
100
AcDbEntity
  8
0
  6
Continuous
 62
     7
370
    25
100
AcDbLine
 10
-207.0182562403
 20
279.9619826822
 30
0.0
 11
-163.1182562403
 21
279.9619826822
 31
0.0
  0
LINE
  5
1D8
330
1F
100
AcDbEntity
  8
0
  6
Continuous
 62
     7
370
    25
100
AcDbLine
 10
-160.1182562403
 20
279.9619826822
 30
0.0
 11
-159.6182562403
 21
279.9619826822
 31
0.0
  0
LINE
  5
1D9
330
1F
100
AcDbEntity
  8
0
  6
Continuous
 62
     7
370
    25
100
AcDbLine
 10
-151.3182562403
 20
279.5619826822
 30
0.0
 11
-159.6182562403
 21
279.5619826822
 31
0.0
  0
LINE
  5
1DA
330
1F
100
AcDbEntity
  8
0
  6
Continuous
 62
     7
370
    25
100
AcDbLine
 10
-159.6182562403
 20
279.5619826822
 30
0.0
 11
-159.6182562403
 21
279.9619826822
 31
0.0
  0
LINE
  5
1DB
330
1F
100
AcDbEntity
  8
0
  6
Continuous
 62
     7
370
    25
100
AcDbLine
 10
-151.7182562403
 20
279.9619826822
 30
0.0
 11
-159.6182562403
 21
279.9619826822
 31
0.0
  0
LINE
  5
1DC
330
1F
100
AcDbEntity
  8
0
  6
Continuous
 62
     7
370
    25
100
AcDbLine
 10
-151.7182562403
 20
286.9619826822
 30
0.0
 11
-151.7182562403
 21
279.9619826822
 31
0.0
  0
LINE
  5
1DD
330
1F
100
AcDbEntity
  8
0
  6
Continuous
 62
     7
370
    25
100
AcDbLine
 10
-151.7182562403
 20
286.9619826822
 30
0.0
 11
-151.3182562403
 21
286.9619826822
 31
0.0
  0
LINE
  5
1DE
330
1F
100
AcDbEntity
  8
0
  6
Continuous
 62
     7
370
    25
100
AcDbLine
 10
-151.3182562403
 20
286.9619826822
 30
0.0
 11
-151.3182562403
 21
279.5619826822
 31
0.0
  0
ARC
  5
1DF
330
1F
100
AcDbEntity
  8
0
  6
Continuous
 62
     7
370
    25
100
AcDbCircle
 10
-160.1182562403
 20
279.4619826822
 30
0.0
 40
0.5
100
AcDbArc
 50
0.0
 51
90.0
  0
LINE
  5
1E0
330
1F
100
AcDbEntity
  8
0
  6
Continuous
 62
     7
370
    25
100
AcDbLine
 10
-159.6182562403
 20
272.4619826822
 30
0.0
 11
-159.6182562403
 21
279.4619826822
 31
0.0
  0
ARC
  5
1E1
330
1F
100
AcDbEntity
  8
0
  6
Continuous
 62
     7
370
    25
100
AcDbCircle
 10
-160.1182562403
 20
272.4619826822
 30
0.0
 40
0.5000000000000568
100
AcDbArc
 50
270.0
 51
0.0
  0
LINE
  5
1E2
330
1F
100
AcDbEntity
  8
0
  6
Continuous
 62
     7
370
    25
100
AcDbLine
 10
-163.1182562403
 20
271.9619826822
 30
0.0
 11
-160.1182562403
 21
271.9619826822
 31
0.0
  0
ARC
  5
1E3
330
1F
100
AcDbEntity
  8
0
  6
Continuous
 62
     7
370
    25
100
AcDbCircle
 10
-163.1182562403
 20
272.4619826822
 30
0.0
 40
0.5
100
AcDbArc
 50
180.0
 51
270.0
  0
LINE
  5
1E4
330
1F
100
AcDbEntity
  8
0
  6
Continuous
 62
     7
370
    25
100
AcDbLine
 10
-163.6182562403
 20
279.4619826822
 30
0.0
 11
-163.6182562403
 21
272.4619826822
 31
0.0
  0
ARC
  5
1E5
330
1F
100
AcDbEntity
  8
0
  6
Continuous
 62
     7
370
    25
100
AcDbCircle
 10
-163.1182562403
 20
279.4619826822
 30
0.0
 40
0.5
100
AcDbArc
 50
90.0
 51
180.0
  0
LINE
  5
1E6
330
1F
100
AcDbEntity
  8
0
  6
Continuous
 62
     7
370
    25
100
AcDbLine
 10
-160.1182562403
 20
279.9619826822
 30
0.0
 11
-163.1182562403
 21
279.9619826822
 31
0.0
  0
LINE
  5
1E7
330
1F
100
AcDbEntity
  8
0
  6
Continuous
 62
     7
370
    25
100
AcDbLine
 10
-160.1182562403
 20
272.4619826822
 30
0.0
 11
-160.1182562403
 21
279.4619826822
 31
0.0
  0
LINE
  5
1E8
330
1F
100
AcDbEntity
  8
0
  6
Continuous
 62
     7
370
    25
100
AcDbLine
 10
-160.1182562403
 20
279.4619826822
 30
0.0
 11
-163.1182562403
 21
279.4619826822
 31
0.0
  0
LINE
  5
1E9
330
1F
100
AcDbEntity
  8
0
  6
Continuous
 62
     7
370
    25
100
AcDbLine
 10
-163.1182562403
 20
279.4619826822
 30
0.0
 11
-163.1182562403
 21
272.4619826822
 31
0.0
  0
LINE
  5
1EA
330
1F
100
AcDbEntity
  8
0
  6
Continuous
 62
     7
370
    25
100
AcDbLine
 10
-163.1182562403
 20
272.4619826822
 30
0.0
 11
-160.1182562403
 21
272.4619826822
 31
0.0
  0
LINE
  5
1EB
330
1F
100
AcDbEntity
  8
0
  6
Continuous
 62
     7
370
    25
100
AcDbLine
 10
-216.2182562403
 20
279.5619826822
 30
0.0
 11
-207.0182562403
 21
279.5619826822
 31
0.0
  0
LINE
  5
1EC
330
1F
100
AcDbEntity
  8
0
  6
Continuous
 62
     7
370
    25
100
AcDbLine
 10
-216.9182562403
 20
286.9619826822
 30
0.0
 11
-216.9182562403
 21
280.2619826822
 31
0.0
  0
LINE
  5
1ED
330
1F
100
AcDbEntity
  8
0
  6
Continuous
 62
     7
370
    25
100
AcDbLine
 10
-216.5182562403
 20
286.9619826822
 30
0.0
 11
-216.9182562403
 21
286.9619826822
 31
0.0
  0
LINE
  5
1EE
330
1F
100
AcDbEntity
  8
0
  6
Continuous
 62
     7
370
    25
100
AcDbLine
 10
-216.5182562403
 20
286.9619826822
 30
0.0
 11
-216.5182562403
 21
280.2619826822
 31
0.0
  0
ARC
  5
1EF
330
1F
100
AcDbEntity
  8
0
  6
Continuous
 62
     7
370
    25
100
AcDbCircle
 10
-216.2182562403
 20
280.2619826822
 30
0.0
 40
0.3000000000000682
100
AcDbArc
 50
180.0
 51
270.0
  0
LINE
  5
1F0
330
1F
100
AcDbEntity
  8
0
  6
Continuous
 62
     7
370
    25
100
AcDbLine
 10
-216.2182562403
 20
279.9619826822
 30
0.0
 11
-207.0182562403
 21
279.9619826822
 31
0.0
  0
LINE
  5
1F1
330
1F
100
AcDbEntity
  8
0
  6
Continuous
 62
     7
370
    25
100
AcDbLine
 10
-207.0182562403
 20
279.9619826822
 30
0.0
 11
-207.0182562403
 21
279.5619826822
 31
0.0
  0
ARC
  5
1F2
330
1F
100
AcDbEntity
  8
0
  6
Continuous
 62
     7
370
    25
100
AcDbCircle
 10
-216.2182562403
 20
280.2619826822
 30
0.0
 40
0.7000000000000455
100
AcDbArc
 50
180.0
 51
270.0
  0
ARC
  5
1F3
330
1F
100
AcDbEntity
  8
0
  6
Continuous
 62
     7
370
    25
100
AcDbCircle
 10
-207.0182562403
 20
279.2619826822
 30
0.0
 40
0.2999999999999829
100
AcDbArc
 50
0.0
 51
90.0
  0
ARC
  5
1F4
330
1F
100
AcDbEntity
  8
0
  6
Continuous
 62
     7
370
    25
100
AcDbCircle
 10
-207.0182562403
 20
279.2619826822
 30
0.0
 40
0.6999999999999886
100
AcDbArc
 50
0.0
 51
90.0
  0
LINE
  5
1F5
330
1F
100
AcDbEntity
  8
0
  6
Continuous
 62
     7
370
    25
100
AcDbLine
 10
-206.3182562403
 20
266.7892373603
 30
0.0
 11
-206.7182562403
 21
266.7892373603
 31
0.0
  0
LINE
  5
1F6
330
1F
100
AcDbEntity
  8
0
  6
Continuous
 62
     7
370
    25
100
AcDbLine
 10
-206.3182562403
 20
266.7892373603
 30
0.0
 11
-206.3182562403
 21
279.2619826822
 31
0.0
  0
LINE
  5
1F7
330
1F
100
AcDbEntity
  8
0
  6
Continuous
 62
     7
370
    25
100
AcDbLine
 10
-206.7182562403
 20
266.7892373603
 30
0.0
 11
-206.7182562403
 21
279.2619826822
 31
0.0
  0
LINE
  5
1F8
330
1F
100
AcDbEntity
  8
0
  6
Continuous
 62
     7
370
    25
100
AcDbLine
 10
-214.2182562403
 20
222.5619826822
 30
0.0
 11
-214.2182562403
 21
187.5619826822
 31
0.0
  0
LINE
  5
1F9
330
1F
100
AcDbEntity
  8
0
  6
Continuous
 62
     7
370
    25
100
AcDbLine
 10
-216.2182562403
 20
279.5619826822
 30
0.0
 11
-216.2182562403
 21
187.5619826822
 31
0.0
  0
LINE
  5
1FA
330
1F
100
AcDbEntity
  8
0
  6
Continuous
 62
     7
370
    25
100
AcDbLine
 10
-207.2182562403
 20
279.5619826822
 30
0.0
 11
-216.2182562403
 21
279.5619826822
 31
0.0
  0
LINE
  5
1FB
330
1F
100
AcDbEntity
  8
0
  6
Continuous
 62
     7
370
    25
100
AcDbLine
 10
-214.2182562403
 20
187.5619826822
 30
0.0
 11
-216.2182562403
 21
187.5619826822
 31
0.0
  0
LINE
  5
1FC
330
1F
100
AcDbEntity
  8
0
  6
Continuous
 62
     7
370
    25
100
AcDbLine
 10
-208.4122360332
 20
222.5619826822
 30
0.0
 11
-207.2182562403
 21
279.5619826822
 31
0.0
  0
LINE
  5
1FD
330
1F
100
AcDbEntity
  8
0
  6
Continuous
 62
     7
370
    25
100
AcDbLine
 10
-208.4122360332
 20
222.5619826822
 30
0.0
 11
-214.2182562403
 21
222.5619826822
 31
0.0
  0
LINE
  5
1FE
330
1F
100
AcDbEntity
  8
0
  6
Continuous
 62
     7
370
    25
100
AcDbLine
 10
-98.2182562403
 20
187.5619826822
 30
0.0
 11
-98.2182562403
 21
222.5619826822
 31
0.0
  0
LINE
  5
1FF
330
1F
100
AcDbEntity
  8
0
  6
Continuous
 62
     7
370
    25
100
AcDbLine
 10
-96.2182562403
 20
259.5619826822
 30
0.0
 11
-104.7993159621
 21
259.5619826822
 31
0.0
  0
LINE
  5
200
330
1F
100
AcDbEntity
  8
0
  6
Continuous
 62
     7
370
    25
100
AcDbLine
 10
-96.2182562403
 20
187.5619826822
 30
0.0
 11
-96.2182562403
 21
259.5619826822
 31
0.0
  0
LINE
  5
201
330
1F
100
AcDbEntity
  8
0
  6
Continuous
 62
     7
370
    25
100
AcDbLine
 10
-96.2182562403
 20
187.5619826822
 30
0.0
 11
-98.2182562403
 21
187.5619826822
 31
0.0
  0
LINE
  5
202
330
1F
100
AcDbEntity
  8
0
  6
Continuous
 62
     7
370
    25
100
AcDbLine
 10
-104.7993159621
 20
259.5619826822
 30
0.0
 11
-104.0242764475
 21
222.5619826822
 31
0.0
  0
LINE
  5
203
330
1F
100
AcDbEntity
  8
0
  6
Continuous
 62
     7
370
    25
100
AcDbLine
 10
-98.2182562403
 20
222.5619826822
 30
0.0
 11
-104.0242764475
 21
222.5619826822
 31
0.0
  0
LINE
  5
204
330
1F
100
AcDbEntity
  8
0
  6
Continuous
 62
     7
370
    25
100
AcDbLine
 10
-209.14538152
 20
187.5619826822
 30
0.0
 11
-214.2182562403
 21
187.5619826822
 31
0.0
  0
LINE
  5
205
330
1F
100
AcDbEntity
  8
0
  6
Continuous
 62
     7
370
    25
100
AcDbLine
 10
-209.14538152
 20
187.5619826822
 30
0.0
 11
-208.4122360332
 21
222.5619826822
 31
0.0
  0
LINE
  5
206
330
1F
100
AcDbEntity
  8
0
  6
Continuous
 62
     7
370
    25
100
AcDbLine
 10
-98.2182562403
 20
187.5619826822
 30
0.0
 11
-103.2911309606
 21
187.5619826822
 31
0.0
  0
LINE
  5
207
330
1F
100
AcDbEntity
  8
0
  6
Continuous
 62
     7
370
    25
100
AcDbLine
 10
-104.0242764475
 20
222.5619826822
 30
0.0
 11
-103.2911309606
 21
187.5619826822
 31
0.0
  0
LINE
  5
208
330
1F
100
AcDbEntity
  8
0
  6
Continuous
 62
     7
370
    25
100
AcDbLine
 10
-131.2182562403
 20
222.5619826822
 30
0.0
 11
-121.2182562403
 21
187.5619826822
 31
0.0
  0
LINE
  5
209
330
1F
100
AcDbEntity
  8
0
  6
Continuous
 62
     7
370
    25
100
AcDbLine
 10
-181.2182562403
 20
222.5619826822
 30
0.0
 11
-131.2182562403
 21
222.5619826822
 31
0.0
  0
LINE
  5
20A
330
1F
100
AcDbEntity
  8
0
  6
Continuous
 62
     7
370
    25
100
AcDbLine
 10
-191.2182562403
 20
187.5619826822
 30
0.0
 11
-181.2182562403
 21
222.5619826822
 31
0.0
  0
CIRCLE
  5
20B
330
1F
100
AcDbEntity
  8
0
  6
Continuous
 62
     7
370
    25
100
AcDbCircle
 10
-175.0182562403
 20
274.5619826822
 30
0.0
 40
0.5999999999999659
  0
LINE
  5
20C
330
1F
100
AcDbEntity
  8
0
  6
Continuous
 62
     7
370
    25
100
AcDbLine
 10
-165.2182562403
 20
279.5619826822
 30
0.0
 11
-165.2182562403
 21
259.5619826822
 31
0.0
  0
LINE
  5
20D
330
1F
100
AcDbEntity
  8
0
  6
Continuous
 62
     7
370
    25
100
AcDbLine
 10
-165.2182562403
 20
259.5619826822
 30
0.0
 11
-151.2182562403
 21
259.5619826822
 31
0.0
  0
LINE
  5
20E
330
1F
100
AcDbEntity
  8
0
  6
Continuous
 62
     7
370
    25
100
AcDbLine
 10
-165.2182562403
 20
279.5619826822
 30
0.0
 11
-172.4182562403
 21
279.5619826822
 31
0.0
  0
LINE
  5
20F
330
1F
100
AcDbEntity
  8
0
  6
Continuous
 62
     7
370
    25
100
AcDbLine
 10
-177.4182562403
 20
279.5619826822
 30
0.0
 11
-206.3858007083
 21
279.5619826822
 31
0.0
  0
LINE
  5
210
330
1F
100
AcDbEntity
  8
0
  6
Continuous
 62
     7
370
    25
100
AcDbLine
 10
-191.2182562403
 20
187.5619826822
 30
0.0
 11
-209.14538152
 21
187.5619826822
 31
0.0
  0
LINE
  5
211
330
1F
100
AcDbEntity
  8
0
  6
Continuous
 62
     7
370
    25
100
AcDbLine
 10
-103.2911309606
 20
187.5619826822
 30
0.0
 11
-121.2182562403
 21
187.5619826822
 31
0.0
  0
LINE
  5
212
330
1F
100
AcDbEntity
  8
0
  6
Continuous
 62
     7
370
    25
100
AcDbLine
 10
-121.2182562403
 20
187.5619826822
 30
0.0
 11
-191.2182562403
 21
187.5619826822
 31
0.0
  0
LINE
  5
213
330
1F
100
AcDbEntity
  8
0
  6
Continuous
 62
     7
370
    25
100
AcDbLine
 10
-127.7182562403
 20
267.5619826822
 30
0.0
 11
-124.7182562403
 21
267.5619826822
 31
0.0
  0
LINE
  5
214
330
1F
100
AcDbEntity
  8
0
  6
Continuous
 62
     7
370
    25
100
AcDbLine
 10
-124.7182562403
 20
267.5619826822
 30
0.0
 11
-124.7182562403
 21
254.5619826822
 31
0.0
  0
LINE
  5
215
330
1F
100
AcDbEntity
  8
0
  6
Continuous
 62
     7
370
    25
100
AcDbLine
 10
-124.7182562403
 20
254.5619826822
 30
0.0
 11
-127.7182562403
 21
254.5619826822
 31
0.0
  0
LINE
  5
216
330
1F
100
AcDbEntity
  8
0
  6
Continuous
 62
     7
370
    25
100
AcDbLine
 10
-126.8682562403
 20
255.9119826822
 30
0.0
 11
-126.8682562403
 21
257.6119826822
 31
0.0
  0
ARC
  5
217
330
1F
100
AcDbEntity
  8
0
  6
Continuous
 62
     7
370
    25
100
AcDbCircle
 10
-126.2182562403
 20
255.9119826822
 30
0.0
 40
0.6500000000000199
100
AcDbArc
 50
180.0
 51
0.0
  0
ARC
  5
218
330
1F
100
AcDbEntity
  8
0
  6
Continuous
 62
     7
370
    25
100
AcDbCircle
 10
-126.2182562403
 20
257.6119826822
 30
0.0
 40
0.6500000000000199
100
AcDbArc
 50
0.0
 51
180.0
  0
LINE
  5
219
330
1F
100
AcDbEntity
  8
0
  6
Continuous
 62
     7
370
    25
100
AcDbLine
 10
-126.8682562403
 20
264.5119826822
 30
0.0
 11
-126.8682562403
 21
266.2119826822
 31
0.0
  0
ARC
  5
21A
330
1F
100
AcDbEntity
  8
0
  6
Continuous
 62
     7
370
    25
100
AcDbCircle
 10
-126.2182562403
 20
266.2119826822
 30
0.0
 40
0.6500000000000199
100
AcDbArc
 50
0.0
 51
180.0
  0
LINE
  5
21B
330
1F
100
AcDbEntity
  8
0
  6
Continuous
 62
     7
370
    25
100
AcDbLine
 10
-125.5682562403
 20
257.6119826822
 30
0.0
 11
-125.5682562403
 21
255.9119826822
 31
0.0
  0
ARC
  5
21C
330
1F
100
AcDbEntity
  8
0
  6
Continuous
 62
     7
370
    25
100
AcDbCircle
 10
-126.2182562403
 20
264.5119826822
 30
0.0
 40
0.6500000000000199
100
AcDbArc
 50
180.0
 51
0.0
  0
LINE
  5
21D
330
1F
100
AcDbEntity
  8
0
  6
Continuous
 62
     7
370
    25
100
AcDbLine
 10
-127.7182562403
 20
254.5619826822
 30
0.0
 11
-127.7182562403
 21
267.5619826822
 31
0.0
  0
LINE
  5
21E
330
1F
100
AcDbEntity
  8
0
  6
Continuous
 62
     7
370
    25
100
AcDbLine
 10
-125.5682562403
 20
266.2119826822
 30
0.0
 11
-125.5682562403
 21
264.5119826822
 31
0.0
  0
LINE
  5
21F
330
1F
100
AcDbEntity
  8
0
  6
Continuous
 62
     7
370
    25
100
AcDbLine
 10
-127.7182562403
 20
243.8649635815
 30
0.0
 11
-124.7182562403
 21
243.8649635815
 31
0.0
  0
LINE
  5
220
330
1F
100
AcDbEntity
  8
0
  6
Continuous
 62
     7
370
    25
100
AcDbLine
 10
-127.7182562403
 20
254.5619826822
 30
0.0
 11
-127.7182562403
 21
243.8649635815
 31
0.0
  0
LINE
  5
221
330
1F
100
AcDbEntity
  8
0
  6
Continuous
 62
     7
370
    25
100
AcDbLine
 10
-124.7182562403
 20
243.8649635815
 30
0.0
 11
-124.7182562403
 21
254.5619826822
 31
0.0
  0
LINE
  5
222
330
1F
100
AcDbEntity
  8
0
  6
Continuous
 62
     7
370
    25
100
AcDbLine
 10
-128.7182562403
 20
254.5619826822
 30
0.0
 11
-128.7182562403
 21
258.8619826822
 31
0.0
  0
LINE
  5
223
330
1F
100
AcDbEntity
  8
0
  6
Continuous
 62
     7
370
    25
100
AcDbLine
 10
-123.7182562403
 20
254.5619826822
 30
0.0
 11
-123.7182562403
 21
258.8619826822
 31
0.0
  0
LINE
  5
224
330
1F
100
AcDbEntity
  8
0
  6
Continuous
 62
     7
370
    25
100
AcDbLine
 10
-123.7182562403
 20
254.5619826822
 30
0.0
 11
-124.7182562403
 21
254.5619826822
 31
0.0
  0
LINE
  5
225
330
1F
100
AcDbEntity
  8
0
  6
Continuous
 62
     7
370
    25
100
AcDbLine
 10
-127.7182562403
 20
254.5619826822
 30
0.0
 11
-128.7182562403
 21
254.5619826822
 31
0.0
  0
ARC
  5
226
330
1F
100
AcDbEntity
  8
0
  6
Continuous
 62
     7
370
    25
100
AcDbCircle
 10
-126.2182562403
 20
257.0619826822
 30
0.0
 40
0.7000000000000417
100
AcDbArc
 50
21.7867892983
 51
158.2132107017
  0
LINE
  5
227
330
1F
100
AcDbEntity
  8
0
  6
Continuous
 62
     7
370
    25
100
AcDbLine
 10
-123.7182562403
 20
259.5619826822
 30
0.0
 11
-124.7182562403
 21
259.5619826822
 31
0.0
  0
LINE
  5
228
330
1F
100
AcDbEntity
  8
0
  6
Continuous
 62
     7
370
    25
100
AcDbLine
 10
-127.7182562403
 20
259.5619826822
 30
0.0
 11
-128.7182562403
 21
259.5619826822
 31
0.0
  0
LINE
  5
229
330
1F
100
AcDbEntity
  8
0
  6
Continuous
 62
     7
370
    25
100
AcDbLine
 10
-128.7182562403
 20
258.8619826822
 30
0.0
 11
-128.7182562403
 21
259.5619826822
 31
0.0
  0
LINE
  5
22A
330
1F
100
AcDbEntity
  8
0
  6
Continuous
 62
     7
370
    25
100
AcDbLine
 10
-123.7182562403
 20
258.8619826822
 30
0.0
 11
-123.7182562403
 21
259.5619826822
 31
0.0
  0
ARC
  5
22B
330
1F
100
AcDbEntity
  8
0
  6
Continuous
 62
     7
370
    25
100
AcDbCircle
 10
-126.2182562403
 20
239.4619826822
 30
0.0
 40
0.700000000000017
100
AcDbArc
 50
180.0
 51
0.0
  0
ARC
  5
22C
330
1F
100
AcDbEntity
  8
0
  6
Continuous
 62
     7
370
    25
100
AcDbCircle
 10
-126.2182562403
 20
240.5619826822
 30
0.0
 40
0.700000000000017
100
AcDbArc
 50
0.0
 51
180.0
  0
LINE
  5
22D
330
1F
100
AcDbEntity
  8
0
  6
Continuous
 62
     7
370
    25
100
AcDbLine
 10
-126.9182562403
 20
240.5619826822
 30
0.0
 11
-126.9182562403
 21
239.4619826822
 31
0.0
  0
LINE
  5
22E
330
1F
100
AcDbEntity
  8
0
  6
Continuous
 62
     7
370
    25
100
AcDbLine
 10
-123.7182562403
 20
254.5619826822
 30
0.0
 11
-123.7182562403
 21
236.5619826822
 31
0.0
  0
LINE
  5
22F
330
1F
100
AcDbEntity
  8
0
  6
Continuous
 62
     7
370
    25
100
AcDbLine
 10
-123.7182562403
 20
236.5619826822
 30
0.0
 11
-128.7182562403
 21
236.5619826822
 31
0.0
  0
LINE
  5
230
330
1F
100
AcDbEntity
  8
0
  6
Continuous
 62
     7
370
    25
100
AcDbLine
 10
-125.5182562403
 20
239.4619826822
 30
0.0
 11
-125.5182562403
 21
240.5619826822
 31
0.0
  0
LINE
  5
231
330
1F
100
AcDbEntity
  8
0
  6
Continuous
 62
     7
370
    25
100
AcDbLine
 10
-128.7182562403
 20
254.5619826822
 30
0.0
 11
-128.7182562403
 21
236.5619826822
 31
0.0
  0
LINE
  5
232
330
1F
100
AcDbEntity
  8
0
  6
Continuous
 62
     7
370
    25
100
AcDbLine
 10
-151.2182562403
 20
259.5619826822
 30
0.0
 11
-128.7182562403
 21
259.5619826822
 31
0.0
  0
LINE
  5
233
330
1F
100
AcDbEntity
  8
0
  6
Continuous
 62
     7
370
    25
100
AcDbLine
 10
-123.7182562403
 20
259.5619826822
 30
0.0
 11
-104.7993159621
 21
259.5619826822
 31
0.0
  0
LINE
  5
234
330
1F
100
AcDbEntity
  8
0
  6
Continuous
 62
     7
370
    25
100
AcDbLine
 10
-144.2182562403
 20
286.9619826822
 30
0.0
 11
-144.2182562403
 21
268.0619826822
 31
0.0
  0
LINE
  5
235
330
1F
100
AcDbEntity
  8
0
  6
Continuous
 62
     7
370
    25
100
AcDbLine
 10
-151.2182562403
 20
286.9619826822
 30
0.0
 11
-151.2182562403
 21
259.5619826822
 31
0.0
  0
LINE
  5
236
330
1F
100
AcDbEntity
  8
0
  6
Continuous
 62
     7
370
    25
100
AcDbLine
 10
-96.2182562403
 20
266.5619826822
 30
0.0
 11
-96.2182562403
 21
259.5619826822
 31
0.0
  0
LINE
  5
237
330
1F
100
AcDbEntity
  8
0
  6
Continuous
 62
     7
370
    25
100
AcDbLine
 10
-142.7182562403
 20
266.5619826822
 30
0.0
 11
-127.7182562403
 21
266.5619826822
 31
0.0
  0
LINE
  5
238
330
1F
100
AcDbEntity
  8
0
  6
Continuous
 62
     7
370
    25
100
AcDbLine
 10
-126.7659787978
 20
266.5619826822
 30
0.0
 11
-125.6705336828
 21
266.5619826822
 31
0.0
  0
LINE
  5
239
330
1F
100
AcDbEntity
  8
0
  6
Continuous
 62
     7
370
    25
100
AcDbLine
 10
-124.7182562403
 20
266.5619826822
 30
0.0
 11
-96.2182562403
 21
266.5619826822
 31
0.0
  0
LINE
  5
23A
330
1F
100
AcDbEntity
  8
0
  6
Continuous
 62
     7
370
    25
100
AcDbLine
 10
-151.2182562403
 20
286.9619826822
 30
0.0
 11
-144.2182562403
 21
286.9619826822
 31
0.0
  0
LINE
  5
23B
330
1F
100
AcDbEntity
  8
0
  6
Continuous
 62
     7
370
    25
100
AcDbLine
 10
-142.7182562403
 20
266.5619826822
 30
0.0
 11
-144.2182562403
 21
268.0619826822
 31
0.0
  0
LINE
  5
23C
330
1F
100
AcDbEntity
  8
0
  6
Continuous
 62
     7
370
    25
100
AcDbLine
 10
-164.2182562403
 20
271.4619826822
 30
0.0
 11
-164.2182562403
 21
278.4619826822
 31
0.0
  0
LINE
  5
23D
330
1F
100
AcDbEntity
  8
0
  6
Continuous
 62
     7
370
    25
100
AcDbLine
 10
-164.2182562403
 20
278.4619826822
 30
0.0
 11
-163.7182562403
 21
278.4619826822
 31
0.0
  0
LINE
  5
23E
330
1F
100
AcDbEntity
  8
0
  6
Continuous
 62
     7
370
    25
100
AcDbLine
 10
-159.5182562403
 20
278.4619826822
 30
0.0
 11
-159.0182562403
 21
278.4619826822
 31
0.0
  0
LINE
  5
23F
330
1F
100
AcDbEntity
  8
0
  6
Continuous
 62
     7
370
    25
100
AcDbLine
 10
-159.5182562403
 20
271.9619826822
 30
0.0
 11
-159.5182562403
 21
278.4619826822
 31
0.0
  0
LINE
  5
240
330
1F
100
AcDbEntity
  8
0
  6
Continuous
 62
     7
370
    25
100
AcDbLine
 10
-159.0182562403
 20
278.4619826822
 30
0.0
 11
-159.0182562403
 21
271.4619826822
 31
0.0
  0
LINE
  5
241
330
1F
100
AcDbEntity
  8
0
  6
Continuous
 62
     7
370
    25
100
AcDbLine
 10
-163.7182562403
 20
278.4619826822
 30
0.0
 11
-163.7182562403
 21
271.9619826822
 31
0.0
  0
LINE
  5
242
330
1F
100
AcDbEntity
  8
0
  6
Continuous
 62
     7
370
    25
100
AcDbLine
 10
-163.7182562403
 20
271.9619826822
 30
0.0
 11
-163.1182562403
 21
271.9619826822
 31
0.0
  0
LINE
  5
243
330
1F
100
AcDbEntity
  8
0
  6
Continuous
 62
     7
370
    25
100
AcDbLine
 10
-160.1182562403
 20
271.9619826822
 30
0.0
 11
-159.5182562403
 21
271.9619826822
 31
0.0
  0
LINE
  5
244
330
1F
100
AcDbEntity
  8
0
  6
Continuous
 62
     7
370
    25
100
AcDbLine
 10
-159.0182562403
 20
271.4619826822
 30
0.0
 11
-164.2182562403
 21
271.4619826822
 31
0.0
  0
LINE
  5
245
330
1F
100
AcDbEntity
  8
0
  6
Continuous
 62
     7
370
    25
100
AcDbLine
 10
-177.4182562403
 20
279.9619826822
 30
0.0
 11
-177.4182562403
 21
279.2619826822
 31
0.0
  0
LINE
  5
246
330
1F
100
AcDbEntity
  8
0
  6
Continuous
 62
     7
370
    25
100
AcDbLine
 10
-172.4182562403
 20
279.2619826822
 30
0.0
 11
-172.4182562403
 21
279.9619826822
 31
0.0
  0
LINE
  5
247
330
1F
100
AcDbEntity
  8
0
  6
Continuous
 62
     7
370
    25
100
AcDbLine
 10
-172.4182562403
 20
279.2619826822
 30
0.0
 11
-172.4182562403
 21
267.0619826822
 31
0.0
  0
ARC
  5
248
330
1F
100
AcDbEntity
  8
0
  6
Continuous
 62
     7
370
    25
100
AcDbCircle
 10
-174.9182562403
 20
274.9619826822
 30
0.0
 40
1.150000000000006
100
AcDbArc
 50
0.0
 51
180.0
  0
LINE
  5
249
330
1F
100
AcDbEntity
  8
0
  6
Continuous
 62
     7
370
    25
100
AcDbLine
 10
-173.7682562403
 20
274.9619826822
 30
0.0
 11
-173.7682562403
 21
269.9619826822
 31
0.0
  0
LINE
  5
24A
330
1F
100
AcDbEntity
  8
0
  6
Continuous
 62
     7
370
    25
100
AcDbLine
 10
-176.0682562403
 20
269.9619826822
 30
0.0
 11
-176.0682562403
 21
274.9619826822
 31
0.0
  0
LINE
  5
24B
330
1F
100
AcDbEntity
  8
0
  6
Continuous
 62
     7
370
    25
100
AcDbLine
 10
-172.4182562403
 20
267.0619826822
 30
0.0
 11
-177.4182562403
 21
267.0619826822
 31
0.0
  0
LINE
  5
24C
330
1F
100
AcDbEntity
  8
0
  6
Continuous
 62
     7
370
    25
100
AcDbLine
 10
-177.4182562403
 20
267.0619826822
 30
0.0
 11
-177.4182562403
 21
279.2619826822
 31
0.0
  0
ARC
  5
24D
330
1F
100
AcDbEntity
  8
0
  6
Continuous
 62
     7
370
    25
100
AcDbCircle
 10
-174.9182562403
 20
269.9619826822
 30
0.0
 40
1.150000000000034
100
AcDbArc
 50
180.0
 51
0.0
  0
LINE
  5
24E
330
1F
100
AcDbEntity
  8
0
  6
Continuous
 62
     7
370
    25
100
AcDbLine
 10
-166.1182562403
 20
279.5619826822
 30
0.0
 11
-166.1182562403
 21
279.9619826822
 31
0.0
  0
LINE
  5
24F
330
1F
100
AcDbEntity
  8
0
  6
Continuous
 62
     7
370
    25
100
AcDbLine
 10
-141.1182562403
 20
266.5619826822
 30
0.0
 11
-141.1182562403
 21
286.9619826822
 31
0.0
  0
LINE
  5
250
330
1F
100
AcDbEntity
  8
0
  6
Continuous
 62
     7
370
    25
100
AcDbLine
 10
-141.1182562403
 20
286.9619826822
 30
0.0
 11
-144.2182562403
 21
286.9619826822
 31
0.0
  0
LINE
  5
251
330
1F
100
AcDbEntity
  8
0
  6
Continuous
 62
     7
370
    25
100
AcDbLine
 10
-151.2182562403
 20
286.9619826822
 30
0.0
 11
-151.3182562403
 21
286.9619826822
 31
0.0
  0
LINE
  5
252
330
1F
100
AcDbEntity
  8
0
  6
Continuous
 62
     7
370
    25
100
AcDbLine
 10
-151.7182562403
 20
286.9619826822
 30
0.0
 11
-151.8182562403
 21
286.9619826822
 31
0.0
  0
LINE
  5
253
330
1F
100
AcDbEntity
  8
0
  6
Continuous
 62
     7
370
    25
100
AcDbLine
 10
-216.4182562403
 20
286.9619826822
 30
0.0
 11
-216.5182562403
 21
286.9619826822
 31
0.0
  0
LINE
  5
254
330
1F
100
AcDbEntity
  8
0
  6
Continuous
 62
     7
370
    25
100
AcDbLine
 10
-216.5182562403
 20
280.2619826822
 30
0.0
 11
-215.2368654696
 21
280.2619826822
 31
0.0
  0
LINE
  5
255
330
1F
100
AcDbEntity
  8
0
  6
PHANTOM
 62
     1
370
    18
100
AcDbLine
 10
-206.7182562403
 20
279.2619826822
 30
0.0
 11
-206.3182562403
 21
279.2619826822
 31
0.0
  0
LINE
  5
256
330
1F
100
AcDbEntity
  8
0
  6
PHANTOM
 62
     1
370
    18
100
AcDbLine
 10
-123.7182562403
 20
258.8619826822
 30
0.0
 11
-124.7182562403
 21
258.8619826822
 31
0.0
  0
LINE
  5
257
330
1F
100
AcDbEntity
  8
0
  6
PHANTOM
 62
     1
370
    18
100
AcDbLine
 10
-127.7182562403
 20
258.8619826822
 30
0.0
 11
-128.7182562403
 21
258.8619826822
 31
0.0
  0
LINE
  5
258
330
1F
100
AcDbEntity
  8
0
  6
PHANTOM
 62
     1
370
    18
100
AcDbLine
 10
-172.4182562403
 20
279.2619826822
 30
0.0
 11
-177.4182562403
 21
279.2619826822
 31
0.0
  0
HATCH
  5
259
330
1F
100
AcDbEntity
  8
O-TEKST
  6
Continuous
370
    18
100
AcDbHatch
 10
0.0
 20
0.0
 30
0.0
210
0.0
220
0.0
230
1.0
  2
ANSI34
 70
     0
 71
     0
 91
        1
 92
        0
 93
        6
 72
     1
 10
-98.21825624032189
 20
187.561982682154
 11
-96.21825624032189
 21
187.561982682154
 72
     1
 10
-96.21825624032189
 20
187.561982682154
 11
-96.2182562403219
 21
259.5619826821541
 72
     1
 10
-96.2182562403219
 20
259.5619826821541
 11
-104.7993159621287
 21
259.561982682154
 72
     1
 10
-104.7993159621287
 20
259.561982682154
 11
-104.0242764474713
 21
222.561982682154
 72
     1
 10
-104.0242764474713
 20
222.561982682154
 11
-98.21825624032189
 21
222.561982682154
 72
     1
 10
-98.21825624032189
 20
222.561982682154
 11
-98.21825624032189
 21
187.561982682154
 97
        0
 75
     0
 76
     1
 52
0.0
 41
1.0
 77
     0
 78
     4
 53
45.0
 43
0.0
 44
0.0
 45
-13.47038418160373
 46
13.47038418160373
 79
     0
 53
45.0
 43
4.49013
 44
0.0
 45
-13.47038418160373
 46
13.47038418160373
 79
     0
 53
45.0
 43
8.98026
 44
0.0
 45
-13.47038418160373
 46
13.47038418160373
 79
     0
 53
45.0
 43
13.4704
 44
0.0
 45
-13.47038418160373
 46
13.47038418160373
 79
     0
 98
        1
 10
0.0
 20
0.0
  0
HATCH
  5
25A
330
1F
100
AcDbEntity
  8
O-TEKST
  6
Continuous
370
    18
100
AcDbHatch
 10
0.0
 20
0.0
 30
0.0
210
0.0
220
0.0
230
1.0
  2
ANSI34
 70
     0
 71
     0
 91
        1
 92
        0
 93
        6
 72
     1
 10
-207.2182562403219
 20
279.561982682154
 11
-216.2182562403219
 21
279.561982682154
 72
     1
 10
-216.2182562403219
 20
279.561982682154
 11
-216.2182562403219
 21
187.561982682154
 72
     1
 10
-216.2182562403219
 20
187.561982682154
 11
-214.2182562403219
 21
187.561982682154
 72
     1
 10
-214.2182562403219
 20
187.561982682154
 11
-214.2182562403219
 21
222.561982682154
 72
     1
 10
-214.2182562403219
 20
222.561982682154
 11
-208.4122360331725
 21
222.561982682154
 72
     1
 10
-208.4122360331725
 20
222.561982682154
 11
-207.2182562403219
 21
279.561982682154
 97
        0
 75
     0
 76
     1
 52
0.0
 41
1.0
 77
     0
 78
     4
 53
45.0
 43
0.0
 44
0.0
 45
-13.47038418160373
 46
13.47038418160373
 79
     0
 53
45.0
 43
4.49013
 44
0.0
 45
-13.47038418160373
 46
13.47038418160373
 79
     0
 53
45.0
 43
8.98026
 44
0.0
 45
-13.47038418160373
 46
13.47038418160373
 79
     0
 53
45.0
 43
13.4704
 44
0.0
 45
-13.47038418160373
 46
13.47038418160373
 79
     0
 98
        1
 10
0.0
 20
0.0
  0
HATCH
  5
25B
330
1F
100
AcDbEntity
  8
O-TEKST
  6
Continuous
370
    18
100
AcDbHatch
 10
0.0
 20
0.0
 30
0.0
210
0.0
220
0.0
230
1.0
  2
ANSI31
 70
     0
 71
     0
 91
        1
 92
        0
 93
        8
 72
     1
 10
-207.0182562403219
 20
279.561982682154
 11
-207.0182562403219
 21
279.961982682154
 72
     1
 10
-207.0182562403219
 20
279.961982682154
 11
-216.2182562403219
 21
279.961982682154
 72
     2
 10
-216.2182562403219
 20
280.261982682154
 40
0.2999999999999995
 50
89.99999999999459
 51
180.0
 73
     0
 72
     1
 10
-216.5182562403219
 20
280.261982682154
 11
-216.5182562403219
 21
286.961982682154
 72
     1
 10
-216.5182562403219
 20
286.961982682154
 11
-216.9182562403219
 21
286.961982682154
 72
     1
 10
-216.9182562403219
 20
286.961982682154
 11
-216.9182562403219
 21
280.261982682154
 72
     2
 10
-216.2182562403219
 20
280.261982682154
 40
0.6999999999999996
 50
180.0
 51
270.0000000000032
 73
     1
 72
     1
 10
-216.2182562403219
 20
279.561982682154
 11
-207.0182562403219
 21
279.561982682154
 97
        0
 75
     0
 76
     1
 52
90.0
 41
1.0
 77
     0
 78
     1
 53
135.0000000000002
 43
0.0
 44
0.0
 45
-2.245064030267281
 46
-2.245064030267296
 79
     0
 98
        1
 10
0.0
 20
0.0
  0
HATCH
  5
25C
330
1F
100
AcDbEntity
  8
O-TEKST
  6
Continuous
370
    18
100
AcDbHatch
 10
0.0
 20
0.0
 30
0.0
210
0.0
220
0.0
230
1.0
  2
ANSI31
 70
     0
 71
     0
 91
        2
 92
        0
 93
        8
 72
     1
 10
-160.1182562403221
 20
279.9619826821538
 11
-163.118256240322
 21
279.9619826821538
 72
     2
 10
-163.1182562403221
 20
279.4619826821538
 40
0.4999999999999998
 50
89.99999999999675
 51
180.0
 73
     1
 72
     1
 10
-163.6182562403221
 20
279.4619826821538
 11
-163.6182562403221
 21
272.4619826821537
 72
     2
 10
-163.1182562403221
 20
272.4619826821537
 40
0.4999999999999998
 50
180.0
 51
270.0000000000008
 73
     1
 72
     1
 10
-163.1182562403221
 20
271.9619826821537
 11
-160.1182562403221
 21
271.9619826821538
 72
     2
 10
-160.1182562403221
 20
272.4619826821538
 40
0.4999999999999998
 50
270.0000000000008
 51
360.0000000000008
 73
     1
 72
     1
 10
-159.618256240322
 20
272.4619826821538
 11
-159.618256240322
 21
279.4619826821538
 72
     2
 10
-160.1182562403221
 20
279.4619826821538
 40
0.4999999999999998
 50
0.0
 51
90.0
 73
     1
 97
        0
 92
        0
 93
        4
 72
     1
 10
-160.1182562403221
 20
272.4619826821538
 11
-163.1182562403221
 21
272.4619826821537
 72
     1
 10
-163.1182562403221
 20
272.4619826821537
 11
-163.118256240322
 21
279.4619826821538
 72
     1
 10
-163.118256240322
 20
279.4619826821538
 11
-160.1182562403221
 21
279.4619826821538
 72
     1
 10
-160.1182562403221
 20
279.4619826821538
 11
-160.1182562403221
 21
272.4619826821538
 97
        0
 75
     0
 76
     1
 52
0.0
 41
1.0
 77
     0
 78
     1
 53
45.0
 43
0.0
 44
0.0
 45
-2.245064030267288
 46
2.245064030267288
 79
     0
 98
        1
 10
0.0
 20
0.0
  0
HATCH
  5
25D
330
1F
100
AcDbEntity
  8
O-TEKST
  6
Continuous
370
    18
100
AcDbHatch
 10
0.0
 20
0.0
 30
0.0
210
0.0
220
0.0
230
1.0
  2
ANSI31
 70
     0
 71
     0
 91
        1
 92
        0
 93
        6
 72
     1
 10
-151.3182562403221
 20
286.9619826821538
 11
-151.718256240322
 21
286.9619826821538
 72
     1
 10
-151.718256240322
 20
286.9619826821538
 11
-151.718256240322
 21
279.9619826821538
 72
     1
 10
-151.718256240322
 20
279.9619826821538
 11
-159.618256240322
 21
279.9619826821538
 72
     1
 10
-159.618256240322
 20
279.9619826821538
 11
-159.618256240322
 21
279.5619826821538
 72
     1
 10
-159.618256240322
 20
279.5619826821538
 11
-151.3182562403221
 21
279.5619826821538
 72
     1
 10
-151.3182562403221
 20
279.5619826821538
 11
-151.3182562403221
 21
286.9619826821538
 97
        0
 75
     0
 76
     1
 52
0.0
 41
1.0
 77
     0
 78
     1
 53
45.0
 43
0.0
 44
0.0
 45
-2.245064030267288
 46
2.245064030267288
 79
     0
 98
        1
 10
0.0
 20
0.0
  0
HATCH
  5
25E
330
1F
100
AcDbEntity
  8
0
  6
Continuous
 62
     7
370
    18
100
AcDbHatch
 10
0.0
 20
0.0
 30
0.0
210
0.0
220
0.0
230
1.0
  2
ANSI31
 70
     0
 71
     0
 91
        1
 92
        0
 93
        6
 72
     1
 10
-151.8182562403219
 20
286.961982682154
 11
-152.1228842238876
 21
286.961982682154
 72
     1
 10
-152.1228842238876
 20
286.961982682154
 11
-153.3042749946344
 21
280.261982682154
 72
     1
 10
-153.3042749946344
 20
280.261982682154
 11
-159.0525451052812
 21
280.261982682154
 72
     1
 10
-159.0525451052812
 20
280.261982682154
 11
-159.0525451052812
 21
279.961982682154
 72
     1
 10
-159.0525451052812
 20
279.961982682154
 11
-153.0525451052812
 21
279.961982682154
 72
     1
 10
-153.0525451052812
 20
279.961982682154
 11
-151.8182562403219
 21
286.961982682154
 97
        0
 75
     0
 76
     1
 52
90.0
 41
1.0
 77
     0
 78
     1
 53
135.0000000000002
 43
0.0
 44
0.0
 45
-2.245064030267281
 46
-2.245064030267296
 79
     0
 98
        1
 10
0.0
 20
0.0
  0
HATCH
  5
25F
330
1F
100
AcDbEntity
  8
0
  6
Continuous
 62
     7
370
    18
100
AcDbHatch
 10
0.0
 20
0.0
 30
0.0
210
0.0
220
0.0
230
1.0
  2
ANSI31
 70
     0
 71
     0
 91
        1
 92
        0
 93
        6
 72
     1
 10
-216.1136282567562
 20
286.961982682154
 11
-216.4182562403219
 21
286.961982682154
 72
     1
 10
-216.4182562403219
 20
286.961982682154
 11
-215.1839673753626
 21
279.9619826821539
 72
     1
 10
-215.1839673753626
 20
279.9619826821539
 11
-209.1839673753626
 21
279.9619826821539
 72
     1
 10
-209.1839673753626
 20
279.9619826821539
 11
-209.1839673753626
 21
280.261982682154
 72
     1
 10
-209.1839673753626
 20
280.261982682154
 11
-214.9322374860095
 21
280.261982682154
 72
     1
 10
-214.9322374860095
 20
280.261982682154
 11
-216.1136282567562
 21
286.961982682154
 97
        0
 75
     0
 76
     1
 52
90.0
 41
1.0
 77
     0
 78
     1
 53
135.0000000000002
 43
0.0
 44
0.0
 45
-2.245064030267281
 46
-2.245064030267296
 79
     0
 98
        1
 10
0.0
 20
0.0
  0
HATCH
  5
260
330
1F
100
AcDbEntity
  8
0
  6
Continuous
 62
     7
370
    18
100
AcDbHatch
 10
0.0
 20
0.0
 30
0.0
210
0.0
220
0.0
230
1.0
  2
ANSI34
 70
     0
 71
     0
 91
        1
 92
        0
 93
        4
 72
     1
 10
-152.1182562403218
 20
286.9619826821539
 11
-216.1182562403219
 21
286.961982682154
 72
     1
 10
-216.1182562403219
 20
286.961982682154
 11
-214.9368654695752
 21
280.261982682154
 72
     1
 10
-214.9368654695752
 20
280.261982682154
 11
-153.2996470110686
 21
280.2619826821539
 72
     1
 10
-153.2996470110686
 20
280.2619826821539
 11
-152.1182562403218
 21
286.9619826821539
 97
        0
 75
     0
 76
     1
 52
0.0
 41
1.0
 77
     0
 78
     4
 53
45.0
 43
0.0
 44
0.0
 45
-13.47038418160373
 46
13.47038418160373
 79
     0
 53
45.0
 43
4.49013
 44
0.0
 45
-13.47038418160373
 46
13.47038418160373
 79
     0
 53
45.0
 43
8.98026
 44
0.0
 45
-13.47038418160373
 46
13.47038418160373
 79
     0
 53
45.0
 43
13.4704
 44
0.0
 45
-13.47038418160373
 46
13.47038418160373
 79
     0
 98
        1
 10
0.0
 20
0.0
  0
INSERT
  5
266
330
1F
100
AcDbEntity
  8
O-TEKST
100
AcDbBlockReference
  2
SW_NOTE_0
 10
-178.1031499021
 20
166.2360796485
 30
0.0
  0
LINE
  5
267
330
1F
100
AcDbEntity
  8
0
  6
Continuous
 62
     7
370
    25
100
AcDbLine
 10
373.2542599366
 20
-44.4244064001
 30
0.0
 11
373.2542599366
 21
-63.4244064001
 31
0.0
  0
LINE
  5
268
330
1F
100
AcDbEntity
  8
0
  6
Continuous
 62
     7
370
    25
100
AcDbLine
 10
345.8542599366
 20
-44.4244064001
 30
0.0
 11
345.8542599366
 21
-63.4244064001
 31
0.0
  0
LINE
  5
269
330
1F
100
AcDbEntity
  8
0
  6
Continuous
 62
     7
370
    25
100
AcDbLine
 10
373.2542599366
 20
-63.4244064001
 30
0.0
 11
345.8542599366
 21
-63.4244064001
 31
0.0
  0
LINE
  5
26A
330
1F
100
AcDbEntity
  8
0
  6
Continuous
 62
     7
370
    25
100
AcDbLine
 10
373.2542599366
 20
-44.4244064001
 30
0.0
 11
345.8542599366
 21
-44.4244064001
 31
0.0
  0
LINE
  5
26B
330
1F
100
AcDbEntity
  8
0
  6
Continuous
 62
     7
370
    25
100
AcDbLine
 10
373.2542599366
 20
84.9755935999
 30
0.0
 11
373.2542599366
 21
65.9755935999
 31
0.0
  0
LINE
  5
26C
330
1F
100
AcDbEntity
  8
0
  6
Continuous
 62
     7
370
    25
100
AcDbLine
 10
373.2542599366
 20
84.9755935999
 30
0.0
 11
345.8542599366
 21
84.9755935999
 31
0.0
  0
LINE
  5
26D
330
1F
100
AcDbEntity
  8
0
  6
Continuous
 62
     7
370
    25
100
AcDbLine
 10
373.2542599366
 20
65.9755935999
 30
0.0
 11
345.8542599366
 21
65.9755935999
 31
0.0
  0
LINE
  5
26E
330
1F
100
AcDbEntity
  8
0
  6
Continuous
 62
     7
370
    25
100
AcDbLine
 10
345.8542599366
 20
84.9755935999
 30
0.0
 11
345.8542599366
 21
65.9755935999
 31
0.0
  0
LINE
  5
26F
330
1F
100
AcDbEntity
  8
0
  6
Continuous
 62
     7
370
    25
100
AcDbLine
 10
373.2542599366
 20
85.2755935999
 30
0.0
 11
340.2542599366
 21
85.2755935999
 31
0.0
  0
LINE
  5
270
330
1F
100
AcDbEntity
  8
0
  6
Continuous
 62
     7
370
    25
100
AcDbLine
 10
340.2542599366
 20
85.2755935999
 30
0.0
 11
340.2542599366
 21
85.6755935999
 31
0.0
  0
LINE
  5
271
330
1F
100
AcDbEntity
  8
0
  6
Continuous
 62
     7
370
    25
100
AcDbLine
 10
373.2542599366
 20
85.6755935999
 30
0.0
 11
373.2542599366
 21
85.2755935999
 31
0.0
  0
LINE
  5
272
330
1F
100
AcDbEntity
  8
0
  6
Continuous
 62
     7
370
    25
100
AcDbLine
 10
373.2542599366
 20
85.6755935999
 30
0.0
 11
340.2542599366
 21
85.6755935999
 31
0.0
  0
LINE
  5
273
330
1F
100
AcDbEntity
  8
0
  6
Continuous
 62
     7
370
    25
100
AcDbLine
 10
340.2542599366
 20
-64.1244064001
 30
0.0
 11
340.2542599366
 21
-63.7244064001
 31
0.0
  0
LINE
  5
274
330
1F
100
AcDbEntity
  8
0
  6
Continuous
 62
     7
370
    25
100
AcDbLine
 10
340.2542599366
 20
-63.7244064001
 30
0.0
 11
373.2542599366
 21
-63.7244064001
 31
0.0
  0
LINE
  5
275
330
1F
100
AcDbEntity
  8
0
  6
Continuous
 62
     7
370
    25
100
AcDbLine
 10
373.2542599366
 20
-63.7244064001
 30
0.0
 11
373.2542599366
 21
-64.1244064001
 31
0.0
  0
LINE
  5
276
330
1F
100
AcDbEntity
  8
0
  6
Continuous
 62
     7
370
    25
100
AcDbLine
 10
340.2542599366
 20
-64.1244064001
 30
0.0
 11
373.2542599366
 21
-64.1244064001
 31
0.0
  0
LINE
  5
277
330
1F
100
AcDbEntity
  8
0
  6
Continuous
 62
     7
370
    25
100
AcDbLine
 10
345.8542599366
 20
76.3945338781
 30
0.0
 11
345.8542599366
 21
84.9755935999
 31
0.0
  0
LINE
  5
278
330
1F
100
AcDbEntity
  8
0
  6
Continuous
 62
     7
370
    25
100
AcDbLine
 10
308.8542599366
 20
82.9755935999
 30
0.0
 11
308.8542599366
 21
77.1695733928
 31
0.0
  0
LINE
  5
279
330
1F
100
AcDbEntity
  8
0
  6
Continuous
 62
     7
370
    25
100
AcDbLine
 10
345.8542599366
 20
84.9755935999
 30
0.0
 11
273.8542599366
 21
84.9755935999
 31
0.0
  0
LINE
  5
27A
330
1F
100
AcDbEntity
  8
0
  6
Continuous
 62
     7
370
    25
100
AcDbLine
 10
273.8542599366
 20
82.9755935999
 30
0.0
 11
273.8542599366
 21
84.9755935999
 31
0.0
  0
LINE
  5
27B
330
1F
100
AcDbEntity
  8
0
  6
Continuous
 62
     7
370
    25
100
AcDbLine
 10
308.8542599366
 20
82.9755935999
 30
0.0
 11
273.8542599366
 21
82.9755935999
 31
0.0
  0
LINE
  5
27C
330
1F
100
AcDbEntity
  8
0
  6
Continuous
 62
     7
370
    25
100
AcDbLine
 10
308.8542599366
 20
77.1695733928
 30
0.0
 11
345.8542599366
 21
76.3945338781
 31
0.0
  0
LINE
  5
27D
330
1F
100
AcDbEntity
  8
0
  6
Continuous
 62
     7
370
    25
100
AcDbLine
 10
308.8542599366
 20
-55.6183861929
 30
0.0
 11
308.8542599366
 21
-61.4244064001
 31
0.0
  0
LINE
  5
27E
330
1F
100
AcDbEntity
  8
0
  6
Continuous
 62
     7
370
    25
100
AcDbLine
 10
345.8542599366
 20
-63.4244064001
 30
0.0
 11
345.8542599366
 21
-54.8433466783
 31
0.0
  0
LINE
  5
27F
330
1F
100
AcDbEntity
  8
0
  6
Continuous
 62
     7
370
    25
100
AcDbLine
 10
273.8542599366
 20
-63.4244064001
 30
0.0
 11
273.8542599366
 21
-61.4244064001
 31
0.0
  0
LINE
  5
280
330
1F
100
AcDbEntity
  8
0
  6
Continuous
 62
     7
370
    25
100
AcDbLine
 10
273.8542599366
 20
-63.4244064001
 30
0.0
 11
345.8542599366
 21
-63.4244064001
 31
0.0
  0
LINE
  5
281
330
1F
100
AcDbEntity
  8
0
  6
Continuous
 62
     7
370
    25
100
AcDbLine
 10
273.8542599366
 20
-61.4244064001
 30
0.0
 11
308.8542599366
 21
-61.4244064001
 31
0.0
  0
LINE
  5
282
330
1F
100
AcDbEntity
  8
0
  6
Continuous
 62
     7
370
    25
100
AcDbLine
 10
345.8542599366
 20
-54.8433466783
 30
0.0
 11
308.8542599366
 21
-55.6183861929
 31
0.0
  0
LINE
  5
283
330
1F
100
AcDbEntity
  8
0
  6
Continuous
 62
     7
370
    25
100
AcDbLine
 10
273.8542599366
 20
-56.3515316798
 30
0.0
 11
273.8542599366
 21
-61.4244064001
 31
0.0
  0
LINE
  5
284
330
1F
100
AcDbEntity
  8
0
  6
Continuous
 62
     7
370
    25
100
AcDbLine
 10
273.8542599366
 20
-56.3515316798
 30
0.0
 11
308.8542599366
 21
-55.6183861929
 31
0.0
  0
LINE
  5
285
330
1F
100
AcDbEntity
  8
0
  6
Continuous
 62
     7
370
    25
100
AcDbLine
 10
273.8542599366
 20
82.9755935999
 30
0.0
 11
273.8542599366
 21
77.9027188796
 31
0.0
  0
LINE
  5
286
330
1F
100
AcDbEntity
  8
0
  6
Continuous
 62
     7
370
    25
100
AcDbLine
 10
308.8542599366
 20
77.1695733928
 30
0.0
 11
273.8542599366
 21
77.9027188796
 31
0.0
  0
LINE
  5
287
330
1F
100
AcDbEntity
  8
0
  6
Continuous
 62
     7
370
    25
100
AcDbLine
 10
273.8542599366
 20
-24.2244064001
 30
0.0
 11
308.8542599366
 21
-14.2244064001
 31
0.0
  0
LINE
  5
288
330
1F
100
AcDbEntity
  8
0
  6
Continuous
 62
     7
370
    25
100
AcDbLine
 10
308.8542599366
 20
-14.2244064001
 30
0.0
 11
308.8542599366
 21
35.7755935999
 31
0.0
  0
LINE
  5
289
330
1F
100
AcDbEntity
  8
0
  6
Continuous
 62
     7
370
    25
100
AcDbLine
 10
308.8542599366
 20
35.7755935999
 30
0.0
 11
273.8542599366
 21
45.7755935999
 31
0.0
  0
LINE
  5
28A
330
1F
100
AcDbEntity
  8
0
  6
Continuous
 62
     7
370
    25
100
AcDbLine
 10
345.8542599366
 20
58.1091967878
 30
0.0
 11
345.8542599366
 21
57.4091967878
 31
0.0
  0
LINE
  5
28B
330
1F
100
AcDbEntity
  8
0
  6
Continuous
 62
     7
370
    25
100
AcDbLine
 10
345.8542599366
 20
56.9091967878
 30
0.0
 11
345.8542599366
 21
-35.358009588
 31
0.0
  0
LINE
  5
28C
330
1F
100
AcDbEntity
  8
0
  6
Continuous
 62
     7
370
    25
100
AcDbLine
 10
345.8542599366
 20
-35.858009588
 30
0.0
 11
345.8542599366
 21
-36.558009588
 31
0.0
  0
LINE
  5
28D
330
1F
100
AcDbEntity
  8
0
  6
Continuous
 62
     7
370
    25
100
AcDbLine
 10
273.8542599366
 20
45.7755935999
 30
0.0
 11
273.8542599366
 21
77.9027188796
 31
0.0
  0
LINE
  5
28E
330
1F
100
AcDbEntity
  8
0
  6
Continuous
 62
     7
370
    25
100
AcDbLine
 10
273.8542599366
 20
-56.3515316798
 30
0.0
 11
273.8542599366
 21
-24.2244064001
 31
0.0
  0
LINE
  5
28F
330
1F
100
AcDbEntity
  8
0
  6
Continuous
 62
     7
370
    25
100
AcDbLine
 10
273.8542599366
 20
45.7755935999
 30
0.0
 11
273.8542599366
 21
-24.2244064001
 31
0.0
  0
LINE
  5
290
330
1F
100
AcDbEntity
  8
0
  6
Continuous
 62
     7
370
    25
100
AcDbLine
 10
353.8542599366
 20
-35.858009588
 30
0.0
 11
353.8542599366
 21
-35.358009588
 31
0.0
  0
LINE
  5
291
330
1F
100
AcDbEntity
  8
0
  6
Continuous
 62
     7
370
    25
100
AcDbLine
 10
353.8542599366
 20
-35.858009588
 30
0.0
 11
345.1542599366
 21
-35.858009588
 31
0.0
  0
LINE
  5
292
330
1F
100
AcDbEntity
  8
0
  6
Continuous
 62
     7
370
    25
100
AcDbLine
 10
340.8542599366
 20
-35.858009588
 30
0.0
 11
340.8542599366
 21
-35.358009588
 31
0.0
  0
LINE
  5
293
330
1F
100
AcDbEntity
  8
0
  6
Continuous
 62
     7
370
    25
100
AcDbLine
 10
353.8542599366
 20
-35.358009588
 30
0.0
 11
340.8542599366
 21
-35.358009588
 31
0.0
  0
LINE
  5
294
330
1F
100
AcDbEntity
  8
0
  6
Continuous
 62
     7
370
    25
100
AcDbLine
 10
340.8542599366
 20
57.4091967878
 30
0.0
 11
340.8542599366
 21
56.9091967878
 31
0.0
  0
LINE
  5
295
330
1F
100
AcDbEntity
  8
0
  6
Continuous
 62
     7
370
    25
100
AcDbLine
 10
345.1542599366
 20
57.4091967878
 30
0.0
 11
353.8542599366
 21
57.4091967878
 31
0.0
  0
LINE
  5
296
330
1F
100
AcDbEntity
  8
0
  6
Continuous
 62
     7
370
    25
100
AcDbLine
 10
353.8542599366
 20
57.4091967878
 30
0.0
 11
353.8542599366
 21
56.9091967878
 31
0.0
  0
LINE
  5
297
330
1F
100
AcDbEntity
  8
0
  6
Continuous
 62
     7
370
    25
100
AcDbLine
 10
340.8542599366
 20
56.9091967878
 30
0.0
 11
353.8542599366
 21
56.9091967878
 31
0.0
  0
LINE
  5
298
330
1F
100
AcDbEntity
  8
0
  6
Continuous
 62
     7
370
    25
100
AcDbLine
 10
345.2612252264
 20
58.5656579172
 30
0.0
 11
330.7711714154
 21
75.9091967878
 31
0.0
  0
ARC
  5
299
330
1F
100
AcDbEntity
  8
0
  6
Continuous
 62
     7
370
    25
100
AcDbCircle
 10
344.9542599366
 20
58.3091967878
 30
0.0
 40
0.4000000000000247
100
AcDbArc
 50
309.8778364531
 51
39.8778364531
  0
ARC
  5
29A
330
1F
100
AcDbEntity
  8
0
  6
Continuous
 62
     7
370
    25
100
AcDbCircle
 10
344.9542599366
 20
58.3091967878
 30
0.0
 40
0.4000000000000203
100
AcDbArc
 50
219.8778364531
 51
309.8778364531
  0
LINE
  5
29B
330
1F
100
AcDbEntity
  8
0
  6
Continuous
 62
     7
370
    25
100
AcDbLine
 10
344.6472946469
 20
58.0527356584
 30
0.0
 11
330.157240836
 21
75.396274529
 31
0.0
  0
LINE
  5
29C
330
1F
100
AcDbEntity
  8
0
  6
Continuous
 62
     7
370
    25
100
AcDbLine
 10
330.157240836
 20
75.396274529
 30
0.0
 11
330.7711714154
 21
75.9091967878
 31
0.0
  0
LINE
  5
29D
330
1F
100
AcDbEntity
  8
0
  6
Continuous
 62
     7
370
    25
100
AcDbLine
 10
330.7711714154
 20
-54.358009588
 30
0.0
 11
345.2612252264
 21
-37.0144707174
 31
0.0
  0
LINE
  5
29E
330
1F
100
AcDbEntity
  8
0
  6
Continuous
 62
     7
370
    25
100
AcDbLine
 10
330.157240836
 20
-53.8450873292
 30
0.0
 11
330.7711714154
 21
-54.358009588
 31
0.0
  0
ARC
  5
29F
330
1F
100
AcDbEntity
  8
0
  6
Continuous
 62
     7
370
    25
100
AcDbCircle
 10
344.9542599366
 20
-36.758009588
 30
0.0
 40
0.4000000000000203
100
AcDbArc
 50
50.1221635469
 51
140.1221635469
  0
ARC
  5
2A0
330
1F
100
AcDbEntity
  8
0
  6
Continuous
 62
     7
370
    25
100
AcDbCircle
 10
344.9542599366
 20
-36.758009588
 30
0.0
 40
0.4000000000000247
100
AcDbArc
 50
320.1221635469
 51
50.1221635469
  0
LINE
  5
2A1
330
1F
100
AcDbEntity
  8
0
  6
Continuous
 62
     7
370
    25
100
AcDbLine
 10
330.157240836
 20
-53.8450873292
 30
0.0
 11
344.6472946469
 21
-36.5015484586
 31
0.0
  0
LINE
  5
2A2
330
1F
100
AcDbEntity
  8
0
  6
Continuous
 62
     7
370
    25
100
AcDbLine
 10
322.8542599366
 20
-54.358009588
 30
0.0
 11
322.8542599366
 21
-54.858009588
 31
0.0
  0
LINE
  5
2A3
330
1F
100
AcDbEntity
  8
0
  6
Continuous
 62
     7
370
    25
100
AcDbLine
 10
345.1542599366
 20
-54.858009588
 30
0.0
 11
322.8542599366
 21
-54.858009588
 31
0.0
  0
LINE
  5
2A4
330
1F
100
AcDbEntity
  8
0
  6
Continuous
 62
     7
370
    25
100
AcDbLine
 10
345.1542599366
 20
-54.358009588
 30
0.0
 11
322.8542599366
 21
-54.358009588
 31
0.0
  0
LINE
  5
2A5
330
1F
100
AcDbEntity
  8
0
  6
Continuous
 62
     7
370
    25
100
AcDbLine
 10
340.8542599366
 20
-35.858009588
 30
0.0
 11
345.1542599366
 21
-35.858009588
 31
0.0
  0
LINE
  5
2A6
330
1F
100
AcDbEntity
  8
0
  6
Continuous
 62
     7
370
    25
100
AcDbLine
 10
340.8542599366
 20
-35.858009588
 30
0.0
 11
340.8542599366
 21
-36.358009588
 31
0.0
  0
LINE
  5
2A7
330
1F
100
AcDbEntity
  8
0
  6
Continuous
 62
     7
370
    25
100
AcDbLine
 10
340.8542599366
 20
-36.358009588
 30
0.0
 11
345.1542599366
 21
-36.358009588
 31
0.0
  0
LINE
  5
2A8
330
1F
100
AcDbEntity
  8
0
  6
Continuous
 62
     7
370
    25
100
AcDbLine
 10
345.3542599366
 20
-36.558009588
 30
0.0
 11
345.3542599366
 21
-54.158009588
 31
0.0
  0
LINE
  5
2A9
330
1F
100
AcDbEntity
  8
0
  6
Continuous
 62
     7
370
    25
100
AcDbLine
 10
345.8542599366
 20
-36.558009588
 30
0.0
 11
345.8542599366
 21
-44.4244064001
 31
0.0
  0
ARC
  5
2AA
330
1F
100
AcDbEntity
  8
0
  6
Continuous
 62
     7
370
    25
100
AcDbCircle
 10
345.1542599366
 20
-36.558009588
 30
0.0
 40
0.1999999999999957
100
AcDbArc
 50
0.0
 51
90.0
  0
ARC
  5
2AB
330
1F
100
AcDbEntity
  8
0
  6
Continuous
 62
     7
370
    25
100
AcDbCircle
 10
345.1542599366
 20
-36.558009588
 30
0.0
 40
0.7000000000000028
100
AcDbArc
 50
0.0
 51
90.0
  0
ARC
  5
2AC
330
1F
100
AcDbEntity
  8
0
  6
Continuous
 62
     7
370
    25
100
AcDbCircle
 10
345.1542599366
 20
-54.158009588
 30
0.0
 40
0.2000000000000099
100
AcDbArc
 50
270.0
 51
0.0
  0
ARC
  5
2AD
330
1F
100
AcDbEntity
  8
0
  6
Continuous
 62
     7
370
    25
100
AcDbCircle
 10
345.1542599366
 20
-54.158009588
 30
0.0
 40
0.7000000000000052
100
AcDbArc
 50
272.4
 51
0.0
  0
LINE
  5
2AE
330
1F
100
AcDbEntity
  8
0
  6
Continuous
 62
     7
370
    25
100
AcDbLine
 10
345.1542599366
 20
75.9091967878
 30
0.0
 11
322.8542599366
 21
75.9091967878
 31
0.0
  0
LINE
  5
2AF
330
1F
100
AcDbEntity
  8
0
  6
Continuous
 62
     7
370
    25
100
AcDbLine
 10
322.8542599366
 20
75.9091967878
 30
0.0
 11
322.8542599366
 21
76.4091967878
 31
0.0
  0
LINE
  5
2B0
330
1F
100
AcDbEntity
  8
0
  6
Continuous
 62
     7
370
    25
100
AcDbLine
 10
345.1542599366
 20
76.4091967878
 30
0.0
 11
322.8542599366
 21
76.4091967878
 31
0.0
  0
LINE
  5
2B1
330
1F
100
AcDbEntity
  8
0
  6
Continuous
 62
     7
370
    25
100
AcDbLine
 10
340.8542599366
 20
57.9091967878
 30
0.0
 11
345.1542599366
 21
57.9091967878
 31
0.0
  0
LINE
  5
2B2
330
1F
100
AcDbEntity
  8
0
  6
Continuous
 62
     7
370
    25
100
AcDbLine
 10
340.8542599366
 20
57.4091967878
 30
0.0
 11
345.1542599366
 21
57.4091967878
 31
0.0
  0
LINE
  5
2B3
330
1F
100
AcDbEntity
  8
0
  6
Continuous
 62
     7
370
    25
100
AcDbLine
 10
340.8542599366
 20
57.4091967878
 30
0.0
 11
340.8542599366
 21
57.9091967878
 31
0.0
  0
LINE
  5
2B4
330
1F
100
AcDbEntity
  8
0
  6
Continuous
 62
     7
370
    25
100
AcDbLine
 10
345.3542599366
 20
58.1091967878
 30
0.0
 11
345.3542599366
 21
75.7091967878
 31
0.0
  0
LINE
  5
2B5
330
1F
100
AcDbEntity
  8
0
  6
Continuous
 62
     7
370
    25
100
AcDbLine
 10
345.8542599366
 20
58.1091967878
 30
0.0
 11
345.8542599366
 21
65.9755935999
 31
0.0
  0
ARC
  5
2B6
330
1F
100
AcDbEntity
  8
0
  6
Continuous
 62
     7
370
    25
100
AcDbCircle
 10
345.1542599366
 20
58.1091967878
 30
0.0
 40
0.1999999999999957
100
AcDbArc
 50
270.0
 51
0.0
  0
ARC
  5
2B7
330
1F
100
AcDbEntity
  8
0
  6
Continuous
 62
     7
370
    25
100
AcDbCircle
 10
345.1542599366
 20
58.1091967878
 30
0.0
 40
0.6999999999999957
100
AcDbArc
 50
270.0
 51
0.0
  0
ARC
  5
2B8
330
1F
100
AcDbEntity
  8
0
  6
Continuous
 62
     7
370
    25
100
AcDbCircle
 10
345.1542599366
 20
75.7091967878
 30
0.0
 40
0.699999999999998
100
AcDbArc
 50
0.0
 51
87.6
  0
ARC
  5
2B9
330
1F
100
AcDbEntity
  8
0
  6
Continuous
 62
     7
370
    25
100
AcDbCircle
 10
345.1542599366
 20
75.7091967878
 30
0.0
 40
0.2000000000000171
100
AcDbArc
 50
0.0
 51
90.0
  0
LINE
  5
2BA
330
1F
100
AcDbEntity
  8
0
  6
PHANTOM
 62
     1
370
    18
100
AcDbLine
 10
345.1542599366
 20
-54.858009588
 30
0.0
 11
345.1542599366
 21
-54.358009588
 31
0.0
  0
LINE
  5
2BB
330
1F
100
AcDbEntity
  8
0
  6
PHANTOM
 62
     1
370
    18
100
AcDbLine
 10
345.1542599366
 20
-36.358009588
 30
0.0
 11
345.1542599366
 21
-35.858009588
 31
0.0
  0
LINE
  5
2BC
330
1F
100
AcDbEntity
  8
0
  6
PHANTOM
 62
     1
370
    18
100
AcDbLine
 10
345.3542599366
 20
-54.158009588
 30
0.0
 11
345.8542599366
 21
-54.158009588
 31
0.0
  0
LINE
  5
2BD
330
1F
100
AcDbEntity
  8
0
  6
PHANTOM
 62
     1
370
    18
100
AcDbLine
 10
345.8542599366
 20
-36.558009588
 30
0.0
 11
345.3542599366
 21
-36.558009588
 31
0.0
  0
LINE
  5
2BE
330
1F
100
AcDbEntity
  8
0
  6
PHANTOM
 62
     1
370
    18
100
AcDbLine
 10
345.1542599366
 20
75.9091967878
 30
0.0
 11
345.1542599366
 21
76.4091967878
 31
0.0
  0
LINE
  5
2BF
330
1F
100
AcDbEntity
  8
0
  6
PHANTOM
 62
     1
370
    18
100
AcDbLine
 10
345.1542599366
 20
57.4091967878
 30
0.0
 11
345.1542599366
 21
57.9091967878
 31
0.0
  0
LINE
  5
2C0
330
1F
100
AcDbEntity
  8
0
  6
PHANTOM
 62
     1
370
    18
100
AcDbLine
 10
345.3542599366
 20
58.1091967878
 30
0.0
 11
345.8542599366
 21
58.1091967878
 31
0.0
  0
LINE
  5
2C1
330
1F
100
AcDbEntity
  8
0
  6
PHANTOM
 62
     1
370
    18
100
AcDbLine
 10
345.8542599366
 20
75.7091967878
 30
0.0
 11
345.3542599366
 21
75.7091967878
 31
0.0
  0
HATCH
  5
2C2
330
1F
100
AcDbEntity
  8
O-TEKST
  6
Continuous
370
    18
100
AcDbHatch
 10
0.0
 20
0.0
 30
0.0
210
0.0
220
0.0
230
1.0
  2
ANSI34
 70
     0
 71
     0
 91
        1
 92
        0
 93
        6
 72
     1
 10
273.854259936642
 20
-61.42440640008813
 11
273.854259936642
 21
-63.42440640008813
 72
     1
 10
273.854259936642
 20
-63.42440640008813
 11
345.854259936642
 21
-63.42440640008816
 72
     1
 10
345.854259936642
 20
-63.42440640008816
 11
345.854259936642
 21
-54.84334667828132
 72
     1
 10
345.854259936642
 20
-54.84334667828132
 11
308.854259936642
 21
-55.61838619293873
 72
     1
 10
308.854259936642
 20
-55.61838619293873
 11
308.854259936642
 21
-61.42440640008813
 72
     1
 10
308.854259936642
 20
-61.42440640008813
 11
273.854259936642
 21
-61.42440640008813
 97
        0
 75
     0
 76
     1
 52
0.0
 41
1.0
 77
     0
 78
     4
 53
45.0
 43
0.0
 44
0.0
 45
-13.47038418160373
 46
13.47038418160373
 79
     0
 53
45.0
 43
4.49013
 44
0.0
 45
-13.47038418160373
 46
13.47038418160373
 79
     0
 53
45.0
 43
8.98026
 44
0.0
 45
-13.47038418160373
 46
13.47038418160373
 79
     0
 53
45.0
 43
13.4704
 44
0.0
 45
-13.47038418160373
 46
13.47038418160373
 79
     0
 98
        1
 10
0.0
 20
0.0
  0
HATCH
  5
2C3
330
1F
100
AcDbEntity
  8
O-TEKST
  6
Continuous
370
    18
100
AcDbHatch
 10
0.0
 20
0.0
 30
0.0
210
0.0
220
0.0
230
1.0
  2
ANSI34
 70
     0
 71
     0
 91
        1
 92
        0
 93
        6
 72
     1
 10
273.854259936642
 20
84.97559359991187
 11
273.854259936642
 21
82.97559359991187
 72
     1
 10
273.854259936642
 20
82.97559359991187
 11
308.854259936642
 21
82.97559359991187
 72
     1
 10
308.854259936642
 20
82.97559359991187
 11
308.854259936642
 21
77.1695733927625
 72
     1
 10
308.854259936642
 20
77.1695733927625
 11
345.854259936642
 21
76.39453387810508
 72
     1
 10
345.854259936642
 20
76.39453387810508
 11
345.854259936642
 21
84.97559359991187
 72
     1
 10
345.854259936642
 20
84.97559359991187
 11
273.854259936642
 21
84.97559359991187
 97
        0
 75
     0
 76
     1
 52
0.0
 41
1.0
 77
     0
 78
     4
 53
45.0
 43
0.0
 44
0.0
 45
-13.47038418160373
 46
13.47038418160373
 79
     0
 53
45.0
 43
4.49013
 44
0.0
 45
-13.47038418160373
 46
13.47038418160373
 79
     0
 53
45.0
 43
8.98026
 44
0.0
 45
-13.47038418160373
 46
13.47038418160373
 79
     0
 53
45.0
 43
13.4704
 44
0.0
 45
-13.47038418160373
 46
13.47038418160373
 79
     0
 98
        1
 10
0.0
 20
0.0
  0
HATCH
  5
2C4
330
1F
100
AcDbEntity
  8
0
  6
Continuous
 62
     7
370
    18
100
AcDbHatch
 10
0.0
 20
0.0
 30
0.0
210
0.0
220
0.0
230
1.0
  2
ANSI31
 70
     0
 71
     0
 91
        1
 92
        0
 93
        4
 72
     1
 10
373.2542599366418
 20
-64.1244064000881
 11
373.2542599366418
 21
-63.72440640008811
 72
     1
 10
373.2542599366418
 20
-63.72440640008811
 11
340.2542599366418
 21
-63.72440640008811
 72
     1
 10
340.2542599366418
 20
-63.72440640008811
 11
340.2542599366418
 21
-64.1244064000881
 72
     1
 10
340.2542599366418
 20
-64.1244064000881
 11
373.2542599366418
 21
-64.1244064000881
 97
        0
 75
     0
 76
     1
 52
0.0
 41
1.0
 77
     0
 78
     1
 53
45.0
 43
0.0
 44
0.0
 45
-2.245064030267288
 46
2.245064030267288
 79
     0
 98
        1
 10
0.0
 20
0.0
  0
HATCH
  5
2C5
330
1F
100
AcDbEntity
  8
0
  6
Continuous
 62
     7
370
    18
100
AcDbHatch
 10
0.0
 20
0.0
 30
0.0
210
0.0
220
0.0
230
1.0
  2
ANSI31
 70
     0
 71
     0
 91
        1
 92
        0
 93
        4
 72
     1
 10
373.2542599366418
 20
85.27559359991186
 11
373.2542599366418
 21
85.67559359991185
 72
     1
 10
373.2542599366418
 20
85.67559359991185
 11
340.2542599366418
 21
85.67559359991185
 72
     1
 10
340.2542599366418
 20
85.67559359991185
 11
340.2542599366418
 21
85.27559359991186
 72
     1
 10
340.2542599366418
 20
85.27559359991186
 11
373.2542599366418
 21
85.27559359991186
 97
        0
 75
     0
 76
     1
 52
0.0
 41
1.0
 77
     0
 78
     1
 53
45.0
 43
0.0
 44
0.0
 45
-2.245064030267288
 46
2.245064030267288
 79
     0
 98
        1
 10
0.0
 20
0.0
  0
INSERT
  5
2CB
330
1F
100
AcDbEntity
  8
O-TEKST
100
AcDbBlockReference
  2
SW_NOTE_1
 10
302.7922820554
 20
-86.4903094337
 30
0.0
  0
LINE
  5
2CC
330
1F
100
AcDbEntity
  8
0
  6
Continuous
 62
     7
370
    25
100
AcDbLine
 10
372.0487030494
 20
312.2891384109
 30
0.0
 11
368.5131691435
 21
314.3301586904
 31
0.0
  0
LINE
  5
2CD
330
1F
100
AcDbEntity
  8
0
  6
Continuous
 62
     7
370
    25
100
AcDbLine
 10
293.4493536918
 20
351.5870690889
 30
0.0
 11
322.2321022216
 21
334.9711420426
 31
0.0
  0
LINE
  5
2CE
330
1F
100
AcDbEntity
  8
0
  6
Continuous
 62
     7
370
    25
100
AcDbLine
 10
434.9615998152
 20
347.9582876771
 30
0.0
 11
434.9615998152
 21
358.5733182316
 31
0.0
  0
LINE
  5
2CF
330
1F
100
AcDbEntity
  8
0
  6
Continuous
 62
     7
370
    25
100
AcDbLine
 10
434.9615998152
 20
358.5733182316
 30
0.0
 11
437.0829201587
 21
357.3487060638
 31
0.0
  0
LINE
  5
2D0
330
1F
100
AcDbEntity
  8
0
  6
Continuous
 62
     7
370
    25
100
AcDbLine
 10
437.0829201587
 20
357.3487060638
 30
0.0
 11
437.0829201587
 21
346.7336755093
 31
0.0
  0
LINE
  5
2D1
330
1F
100
AcDbEntity
  8
0
  6
Continuous
 62
     7
370
    25
100
AcDbLine
 10
437.0829201587
 20
346.7336755093
 30
0.0
 11
434.9615998152
 21
347.9582876771
 31
0.0
  0
LINE
  5
2D2
330
1F
100
AcDbEntity
  8
0
  6
Continuous
 62
     7
370
    25
100
AcDbLine
 10
435.5626405792
 20
348.7136443256
 30
0.0
 11
435.5626405792
 21
350.1017637058
 31
0.0
  0
LWPOLYLINE
  5
2D3
330
1F
100
AcDbEntity
  8
0
  6
Continuous
 62
     7
370
    25
100
AcDbPolyline
 90
       14
 70
   128
 43
0.0
 10
436.4818793947
 20
348.1829790529
 10
436.46852369
 20
348.0636719827
 10
436.4292327611
 20
347.9667187741
 10
436.3662900537
 20
347.8977539952
 10
436.2833535694
 20
347.8607856283
 10
436.1852432751
 20
347.8579621404
 10
436.0776609845
 20
347.8894476226
 10
435.9668589893
 20
347.9534122529
 10
435.8592766988
 20
348.0461386395
 10
435.7611664045
 20
348.162237862
 10
435.6782299202
 20
348.2949626554
 10
435.6152872128
 20
348.4365995374
 10
435.5759962838
 20
348.578917087
 10
435.5626405792
 20
348.7136443256
  0
LINE
  5
2D4
330
1F
100
AcDbEntity
  8
0
  6
Continuous
 62
     7
370
    25
100
AcDbLine
 10
436.4818793947
 20
349.5710984331
 30
0.0
 11
436.4818793947
 21
348.1829790529
 31
0.0
  0
LWPOLYLINE
  5
2D5
330
1F
100
AcDbEntity
  8
0
  6
Continuous
 62
     7
370
    25
100
AcDbPolyline
 90
       14
 70
   128
 43
0.0
 10
435.5626405792
 20
350.1017637058
 10
435.5759962838
 20
350.221070776
 10
435.6152872128
 20
350.3180239846
 10
435.6782299202
 20
350.3869887635
 10
435.7611664045
 20
350.4239571304
 10
435.8592766988
 20
350.4267806182
 10
435.9668589893
 20
350.3952951361
 10
436.0776609845
 20
350.3313305058
 10
436.1852432751
 20
350.2386041192
 10
436.2833535694
 20
350.1225048967
 10
436.3662900537
 20
349.9897801032
 10
436.4292327611
 20
349.8481432213
 10
436.46852369
 20
349.7058256717
 10
436.4818793947
 20
349.5710984331
  0
LINE
  5
2D6
330
1F
100
AcDbEntity
  8
0
  6
Continuous
 62
     7
370
    25
100
AcDbLine
 10
435.5626405792
 20
355.7358953078
 30
0.0
 11
435.5626405792
 21
357.124014688
 31
0.0
  0
LWPOLYLINE
  5
2D7
330
1F
100
AcDbEntity
  8
0
  6
Continuous
 62
     7
370
    25
100
AcDbPolyline
 90
       14
 70
   128
 43
0.0
 10
436.4818793947
 20
355.2052300351
 10
436.46852369
 20
355.0859229649
 10
436.4292327611
 20
354.9889697563
 10
436.3662900537
 20
354.9200049774
 10
436.2833535694
 20
354.8830366105
 10
436.1852432751
 20
354.8802131227
 10
436.0776609845
 20
354.9116986048
 10
435.9668589893
 20
354.9756632351
 10
435.8592766988
 20
355.0683896217
 10
435.7611664045
 20
355.1844888442
 10
435.6782299202
 20
355.3172136377
 10
435.6152872128
 20
355.4588505196
 10
435.5759962838
 20
355.6011680692
 10
435.5626405792
 20
355.7358953078
  0
LINE
  5
2D8
330
1F
100
AcDbEntity
  8
0
  6
Continuous
 62
     7
370
    25
100
AcDbLine
 10
436.4818793947
 20
356.5933494153
 30
0.0
 11
436.4818793947
 21
355.2052300351
 31
0.0
  0
LWPOLYLINE
  5
2D9
330
1F
100
AcDbEntity
  8
0
  6
Continuous
 62
     7
370
    25
100
AcDbPolyline
 90
       14
 70
   128
 43
0.0
 10
435.5626405792
 20
357.124014688
 10
435.5759962838
 20
357.2433217582
 10
435.6152872128
 20
357.3402749668
 10
435.6782299202
 20
357.4092397457
 10
435.7611664045
 20
357.4462081126
 10
435.8592766988
 20
357.4490316005
 10
435.9668589893
 20
357.4175461183
 10
436.0776609845
 20
357.353581488
 10
436.1852432751
 20
357.2608551014
 10
436.2833535694
 20
357.1447558789
 10
436.3662900537
 20
357.0120310854
 10
436.4292327611
 20
356.8703942035
 10
436.46852369
 20
356.7280766539
 10
436.4818793947
 20
356.5933494153
  0
LINE
  5
2DA
330
1F
100
AcDbEntity
  8
0
  6
Continuous
 62
     7
370
    25
100
AcDbLine
 10
437.4364735493
 20
357.5528080918
 30
0.0
 11
437.0829201587
 21
357.3487060638
 31
0.0
  0
LINE
  5
2DB
330
1F
100
AcDbEntity
  8
0
  6
Continuous
 62
     7
370
    25
100
AcDbLine
 10
437.4364735493
 20
357.5528080918
 30
0.0
 11
437.4364735493
 21
346.9377775373
 31
0.0
  0
LINE
  5
2DC
330
1F
100
AcDbEntity
  8
0
  6
Continuous
 62
     7
370
    25
100
AcDbLine
 10
437.4364735493
 20
346.9377775373
 30
0.0
 11
437.0829201587
 21
346.7336755093
 31
0.0
  0
LINE
  5
2DD
330
1F
100
AcDbEntity
  8
0
  6
Continuous
 62
     7
370
    25
100
AcDbLine
 10
435.3151532058
 20
358.7774202595
 30
0.0
 11
434.9615998152
 21
358.5733182316
 31
0.0
  0
LINE
  5
2DE
330
1F
100
AcDbEntity
  8
0
  6
Continuous
 62
     7
370
    25
100
AcDbLine
 10
435.3151532058
 20
358.7774202595
 30
0.0
 11
437.4364735493
 21
357.5528080918
 31
0.0
  0
LINE
  5
2DF
330
1F
100
AcDbEntity
  8
0
  6
Continuous
 62
     7
370
    25
100
AcDbLine
 10
435.9161939698
 20
357.328116716
 30
0.0
 11
435.926331733
 21
357.4331230776
 31
0.0
  0
LINE
  5
2E0
330
1F
100
AcDbEntity
  8
0
  6
Continuous
 62
     7
370
    25
100
AcDbLine
 10
435.9161939698
 20
355.9399973358
 30
0.0
 11
435.9161939698
 21
357.328116716
 31
0.0
  0
ARC
  5
2E1
330
1F
100
AcDbEntity
  8
0
  6
Continuous
 62
     7
370
    25
100
AcDbCircle
 10
436.8624967919
 20
355.9623721932
 30
0.0
 40
0.9465673063648359
100
AcDbArc
 50
181.3544777057
 51
245.6183425853
  0
LINE
  5
2E2
330
1F
100
AcDbEntity
  8
0
  6
Continuous
 62
     7
370
    25
100
AcDbLine
 10
435.9161939698
 20
350.3058657337
 30
0.0
 11
435.926331733
 21
350.4108720954
 31
0.0
  0
LINE
  5
2E3
330
1F
100
AcDbEntity
  8
0
  6
Continuous
 62
     7
370
    25
100
AcDbLine
 10
435.9161939698
 20
348.9177463535
 30
0.0
 11
435.9161939698
 21
350.3058657337
 31
0.0
  0
ARC
  5
2E4
330
1F
100
AcDbEntity
  8
0
  6
Continuous
 62
     7
370
    25
100
AcDbCircle
 10
436.8624967919
 20
348.940121211
 30
0.0
 40
0.9465673063656398
100
AcDbArc
 50
181.3544777057
 51
245.6183425852
  0
LINE
  5
2E5
330
1F
100
AcDbEntity
  8
0
  6
Continuous
 62
     7
370
    25
100
AcDbLine
 10
369.3652791151
 20
320.7053683334
 30
0.0
 11
369.3652791151
 21
313.8382460745
 31
0.0
  0
LINE
  5
2E6
330
1F
100
AcDbEntity
  8
0
  6
Continuous
 62
     7
370
    25
100
AcDbLine
 10
371.4865994586
 20
319.4807561656
 30
0.0
 11
369.3652791151
 21
320.7053683334
 31
0.0
  0
LINE
  5
2E7
330
1F
100
AcDbEntity
  8
0
  6
Continuous
 62
     7
370
    25
100
AcDbLine
 10
371.4865994586
 20
312.6136339067
 30
0.0
 11
371.4865994586
 21
319.4807561656
 31
0.0
  0
LWPOLYLINE
  5
2E8
330
1F
100
AcDbEntity
  8
0
  6
Continuous
 62
     7
370
    25
100
AcDbPolyline
 90
       14
 70
   128
 43
0.0
 10
369.9663198791
 20
317.8679454096
 10
369.9796755837
 20
317.733218171
 10
370.0189665127
 20
317.5909006214
 10
370.0819092201
 20
317.4492637395
 10
370.1648457044
 20
317.316538946
 10
370.2629559987
 20
317.2004397235
 10
370.3705382892
 20
317.1077133369
 10
370.4813402844
 20
317.0437487066
 10
370.588922575
 20
317.0122632245
 10
370.6870328693
 20
317.0150867123
 10
370.7699693536
 20
317.0520550792
 10
370.832912061
 20
317.1210198581
 10
370.8722029899
 20
317.2179730667
 10
370.8855586946
 20
317.3372801369
  0
LINE
  5
2E9
330
1F
100
AcDbEntity
  8
0
  6
Continuous
 62
     7
370
    25
100
AcDbLine
 10
370.8855586946
 20
317.3372801369
 30
0.0
 11
370.8855586946
 21
318.7253995171
 31
0.0
  0
LWPOLYLINE
  5
2EA
330
1F
100
AcDbEntity
  8
0
  6
Continuous
 62
     7
370
    25
100
AcDbPolyline
 90
       14
 70
   128
 43
0.0
 10
370.8855586946
 20
318.7253995171
 10
370.8722029899
 20
318.8601267557
 10
370.832912061
 20
319.0024443053
 10
370.7699693536
 20
319.1440811873
 10
370.6870328693
 20
319.2768059807
 10
370.588922575
 20
319.3929052032
 10
370.4813402844
 20
319.4856315898
 10
370.3705382892
 20
319.5495962201
 10
370.2629559987
 20
319.5810817023
 10
370.1648457044
 20
319.5782582144
 10
370.0819092201
 20
319.5412898475
 10
370.0189665127
 20
319.4723250687
 10
369.9796755837
 20
319.3753718601
 10
369.9663198791
 20
319.2560647898
  0
LINE
  5
2EB
330
1F
100
AcDbEntity
  8
0
  6
Continuous
 62
     7
370
    25
100
AcDbLine
 10
369.9663198791
 20
319.2560647898
 30
0.0
 11
369.9663198791
 21
317.8679454096
 31
0.0
  0
LINE
  5
2EC
330
1F
100
AcDbEntity
  8
0
  6
Continuous
 62
     7
370
    25
100
AcDbLine
 10
371.4865994586
 20
319.4807561656
 30
0.0
 11
371.8401528492
 21
319.6848581936
 31
0.0
  0
LINE
  5
2ED
330
1F
100
AcDbEntity
  8
0
  6
Continuous
 62
     7
370
    25
100
AcDbLine
 10
371.8401528492
 20
312.4095318788
 30
0.0
 11
371.8401528492
 21
319.6848581936
 31
0.0
  0
LINE
  5
2EE
330
1F
100
AcDbEntity
  8
0
  6
Continuous
 62
     7
370
    25
100
AcDbLine
 10
369.3652791151
 20
320.7053683334
 30
0.0
 11
369.7188325057
 21
320.9094703613
 31
0.0
  0
LINE
  5
2EF
330
1F
100
AcDbEntity
  8
0
  6
Continuous
 62
     7
370
    25
100
AcDbLine
 10
371.8401528492
 20
319.6848581936
 30
0.0
 11
369.7188325057
 21
320.9094703613
 31
0.0
  0
LINE
  5
2F0
330
1F
100
AcDbEntity
  8
0
  6
Continuous
 62
     7
370
    25
100
AcDbLine
 10
370.3300110329
 20
319.5651731794
 30
0.0
 11
370.3198732697
 21
319.4601668178
 31
0.0
  0
LINE
  5
2F1
330
1F
100
AcDbEntity
  8
0
  6
Continuous
 62
     7
370
    25
100
AcDbLine
 10
370.3198732697
 20
319.4601668178
 30
0.0
 11
370.3198732697
 21
318.0720474376
 31
0.0
  0
ARC
  5
2F2
330
1F
100
AcDbEntity
  8
0
  6
Continuous
 62
     7
370
    25
100
AcDbCircle
 10
371.2661760918
 20
318.094422295
 30
0.0
 40
0.9465673063661464
100
AcDbArc
 50
181.3544777058
 51
245.6183425851
  0
LINE
  5
2F3
330
1F
100
AcDbEntity
  8
0
  6
Continuous
 62
     7
370
    25
100
AcDbLine
 10
450.5179490013
 20
346.2562992842
 30
0.0
 11
439.0216923972
 21
350.7109304408
 31
0.0
  0
LINE
  5
2F4
330
1F
100
AcDbEntity
  8
0
  6
Continuous
 62
     7
370
    25
100
AcDbLine
 10
450.1552581938
 20
345.545622964
 30
0.0
 11
450.5179490013
 21
346.2562992842
 31
0.0
  0
LINE
  5
2F5
330
1F
100
AcDbEntity
  8
0
  6
Continuous
 62
     7
370
    25
100
AcDbLine
 10
450.1552581938
 20
345.545622964
 30
0.0
 11
438.4971337211
 21
350.0629755503
 31
0.0
  0
LINE
  5
2F6
330
1F
100
AcDbEntity
  8
0
  6
Continuous
 62
     7
370
    25
100
AcDbLine
 10
448.3966286577
 20
347.480911452
 30
0.0
 11
450.5179490013
 21
346.2562992842
 31
0.0
  0
LINE
  5
2F7
330
1F
100
AcDbEntity
  8
0
  6
Continuous
 62
     7
370
    25
100
AcDbLine
 10
439.4390253393
 20
350.9518516201
 30
0.0
 11
448.3966286577
 21
347.480911452
 31
0.0
  0
LINE
  5
2F8
330
1F
100
AcDbEntity
  8
0
  6
Continuous
 62
     7
370
    25
100
AcDbLine
 10
368.163197587
 20
314.2955030551
 30
0.0
 11
367.5513670646
 21
313.9423008126
 31
0.0
  0
LINE
  5
2F9
330
1F
100
AcDbEntity
  8
0
  6
Continuous
 62
     7
370
    25
100
AcDbLine
 10
371.698731493
 20
312.2544827755
 30
0.0
 11
371.0869009705
 21
311.901280533
 31
0.0
  0
LINE
  5
2FA
330
1F
100
AcDbEntity
  8
0
  6
Continuous
 62
     7
370
    25
100
AcDbLine
 10
371.698731493
 20
311.8462123696
 30
0.0
 11
371.4405118281
 21
311.69714533
 31
0.0
  0
ARC
  5
2FB
330
1F
100
AcDbEntity
  8
0
  6
Continuous
 62
     7
370
    25
100
AcDbCircle
 10
371.7539379757
 20
311.7785304578
 30
0.0
 40
0.0873418394857673
100
AcDbArc
 50
350.7859630096
 51
129.2032852357
  0
ARC
  5
2FC
330
1F
100
AcDbEntity
  8
0
  6
Continuous
 62
     7
370
    25
100
AcDbCircle
 10
371.8919541826
 20
312.0175960842
 30
0.0
 40
0.3056964382000391
100
AcDbArc
 50
350.7859630095
 51
129.2032852357
  0
ARC
  5
2FD
330
1F
100
AcDbEntity
  8
0
  6
Continuous
 62
     7
370
    25
100
AcDbCircle
 10
368.3682416254
 20
314.0092861247
 30
0.0
 40
0.3520840651312083
100
AcDbArc
 50
65.6928809539
 51
125.6175774752
  0
LINE
  5
2FE
330
1F
100
AcDbEntity
  8
0
  6
Continuous
 62
     7
370
    25
100
AcDbLine
 10
371.8401528492
 20
311.4664374793
 30
0.0
 11
371.8401528492
 21
311.7645450184
 31
0.0
  0
LINE
  5
2FF
330
1F
100
AcDbEntity
  8
0
  6
Continuous
 62
     7
370
    25
100
AcDbLine
 10
372.1937062398
 20
311.2623354514
 30
0.0
 11
372.1937062398
 21
311.9686470463
 31
0.0
  0
ARC
  5
300
330
1F
100
AcDbEntity
  8
0
  6
Continuous
 62
     7
370
    25
100
AcDbCircle
 10
438.8041769414
 20
350.23082883
 30
0.0
 40
0.3073609615138257
100
AcDbArc
 50
122.60547834
 51
177.3945215144
  0
ARC
  5
301
330
1F
100
AcDbEntity
  8
0
  6
Continuous
 62
     7
370
    25
100
AcDbCircle
 10
439.2182316015
 20
349.9917963759
 30
0.0
 40
1.075763365300203
100
AcDbArc
 50
122.60547834
 51
177.3945215144
  0
ARC
  5
302
330
1F
100
AcDbEntity
  8
0
  6
Continuous
 62
     7
370
    25
100
AcDbCircle
 10
435.7083004361
 20
352.0233886322
 30
0.0
 40
1.101799142859688
100
AcDbArc
 50
132.6649754064
 51
176.9652712848
  0
LINE
  5
303
330
1F
100
AcDbEntity
  8
0
  6
Continuous
 62
     7
370
    25
100
AcDbLine
 10
438.1435803305
 20
346.5295734814
 30
0.0
 11
438.1435803305
 21
350.0406989725
 31
0.0
  0
LINE
  5
304
330
1F
100
AcDbEntity
  8
0
  6
Continuous
 62
     7
370
    25
100
AcDbLine
 10
438.1435803305
 20
346.5295734814
 30
0.0
 11
437.4364735493
 21
346.9377775373
 31
0.0
  0
LINE
  5
305
330
1F
100
AcDbEntity
  8
0
  6
Continuous
 62
     7
370
    25
100
AcDbLine
 10
434.9615998152
 20
348.366491733
 30
0.0
 11
434.6080464246
 21
348.5705937609
 31
0.0
  0
LINE
  5
306
330
1F
100
AcDbEntity
  8
0
  6
Continuous
 62
     7
370
    25
100
AcDbLine
 10
434.6080464246
 20
348.5705937609
 30
0.0
 11
434.6080464246
 21
352.081719252
 31
0.0
  0
LINE
  5
307
330
1F
100
AcDbEntity
  8
0
  6
Continuous
 62
     7
370
    25
100
AcDbLine
 10
436.3758133775
 20
348.1216621895
 30
0.0
 11
436.471576452
 21
348.0771787099
 31
0.0
  0
ARC
  5
308
330
1F
100
AcDbEntity
  8
0
  6
Continuous
 62
     7
370
    25
100
AcDbCircle
 10
436.1567889121
 20
349.9709721877
 30
0.0
 40
0.2597654644052281
100
AcDbArc
 50
81.3821535841
 51
157.8501049897
  0
LINE
  5
309
330
1F
100
AcDbEntity
  8
0
  6
Continuous
 62
     7
370
    25
100
AcDbLine
 10
438.1435803305
 20
346.5295734814
 30
0.0
 11
438.4971337211
 21
346.7336755093
 31
0.0
  0
LINE
  5
30A
330
1F
100
AcDbEntity
  8
0
  6
Continuous
 62
     7
370
    25
100
AcDbLine
 10
438.4971337211
 20
346.7336755093
 30
0.0
 11
438.4971337211
 21
350.2448010004
 31
0.0
  0
LINE
  5
30B
330
1F
100
AcDbEntity
  8
0
  6
Continuous
 62
     7
370
    25
100
AcDbLine
 10
438.6385550773
 20
350.8980203799
 30
0.0
 11
444.2009376066
 21
354.109115464
 31
0.0
  0
LINE
  5
30C
330
1F
100
AcDbEntity
  8
0
  6
Continuous
 62
     7
370
    25
100
AcDbLine
 10
437.4364735493
 20
354.286114044
 30
0.0
 11
440.6654037007
 21
356.1501357436
 31
0.0
  0
LINE
  5
30D
330
1F
100
AcDbEntity
  8
0
  6
Continuous
 62
     7
370
    25
100
AcDbLine
 10
438.6385550773
 20
350.489749974
 30
0.0
 11
444.5545484643
 21
353.9049802611
 31
0.0
  0
LINE
  5
30E
330
1F
100
AcDbEntity
  8
0
  6
Continuous
 62
     7
370
    25
100
AcDbLine
 10
436.2343920213
 20
350.081280518
 30
0.0
 11
436.2418638928
 21
350.1759064192
 31
0.0
  0
ARC
  5
30F
330
1F
100
AcDbEntity
  8
0
  6
Continuous
 62
     7
370
    25
100
AcDbCircle
 10
437.302299794
 20
349.2304739316
 30
0.0
 40
1.068958681476249
100
AcDbArc
 50
182.5408279461
 51
219.8705317942
  0
LINE
  5
310
330
1F
100
AcDbEntity
  8
0
  6
Continuous
 62
     7
370
    25
100
AcDbLine
 10
436.2343920213
 20
349.1830856249
 30
0.0
 11
436.2343920213
 21
350.081280518
 31
0.0
  0
LINE
  5
311
330
1F
100
AcDbEntity
  8
0
  6
Continuous
 62
     7
370
    25
100
AcDbLine
 10
451.2250557825
 20
350.0541783529
 30
0.0
 11
451.2250557825
 21
342.718476265
 31
0.0
  0
LINE
  5
312
330
1F
100
AcDbEntity
  8
0
  6
Continuous
 62
     7
370
    25
100
AcDbLine
 10
451.578609173
 20
349.8500763249
 30
0.0
 11
451.578609173
 21
342.9225782929
 31
0.0
  0
LINE
  5
313
330
1F
100
AcDbEntity
  8
0
  6
Continuous
 62
     7
370
    25
100
AcDbLine
 10
448.3366672949
 20
341.0510450834
 30
0.0
 11
447.6895218765
 21
341.4246341813
 31
0.0
  0
LINE
  5
314
330
1F
100
AcDbEntity
  8
0
  6
Continuous
 62
     7
370
    25
100
AcDbLine
 10
447.6895218765
 20
352.0951986325
 30
0.0
 11
447.6895218765
 21
347.7549049793
 31
0.0
  0
LINE
  5
315
330
1F
100
AcDbEntity
  8
0
  6
Continuous
 62
     7
370
    25
100
AcDbLine
 10
447.6895218765
 20
346.5010596945
 30
0.0
 11
447.6895218765
 21
341.4246341813
 31
0.0
  0
LWPOLYLINE
  5
316
330
1F
100
AcDbEntity
  8
0
  6
Continuous
 62
     7
370
    25
100
AcDbPolyline
 90
       15
 70
   128
 43
0.0
 10
448.9623140827
 20
343.0578352352
 10
448.974724133
 20
342.9234828688
 10
449.0113319922
 20
342.7815391519
 10
449.0703019894
 20
342.6391217353
 10
449.1486771227
 20
342.5033720228
 10
449.2425273356
 20
342.3810970719
 10
449.3471465865
 20
342.2784282592
 10
449.4572888295
 20
342.2005138277
 10
449.5674310724
 20
342.1512607323
 10
449.6720503234
 20
342.1331387289
 10
449.7659005363
 20
342.1470565305
 10
449.8442756696
 20
342.1923162402
 10
449.9032456668
 20
342.2666483473
 10
449.939853526
 20
342.3663255296
 10
449.9522635763
 20
342.4863495569
  0
LINE
  5
317
330
1F
100
AcDbEntity
  8
0
  6
Continuous
 62
     7
370
    25
100
AcDbLine
 10
449.9522635763
 20
342.4863495569
 30
0.0
 11
449.9522635763
 21
343.38454445
 31
0.0
  0
LWPOLYLINE
  5
318
330
1F
100
AcDbEntity
  8
0
  6
Continuous
 62
     7
370
    25
100
AcDbPolyline
 90
       15
 70
   128
 43
0.0
 10
449.9522635763
 20
343.38454445
 10
449.939853526
 20
343.5188968164
 10
449.9032456668
 20
343.6608405332
 10
449.8442756696
 20
343.8032579499
 10
449.7659005363
 20
343.9390076624
 10
449.6720503234
 20
344.0612826133
 10
449.5674310724
 20
344.1639514259
 10
449.4572888295
 20
344.2418658574
 10
449.3471465865
 20
344.2911189528
 10
449.2425273356
 20
344.3092409562
 10
449.1486771227
 20
344.2953231547
 10
449.0703019894
 20
344.2500634449
 10
449.0113319922
 20
344.1757313378
 10
448.974724133
 20
344.0760541555
 10
448.9623140827
 20
343.9560301282
  0
LINE
  5
319
330
1F
100
AcDbEntity
  8
0
  6
Continuous
 62
     7
370
    25
100
AcDbLine
 10
448.9623140827
 20
343.9560301282
 30
0.0
 11
448.9623140827
 21
343.0578352352
 31
0.0
  0
LWPOLYLINE
  5
31A
330
1F
100
AcDbEntity
  8
0
  6
Continuous
 62
     7
370
    25
100
AcDbPolyline
 90
        3
 70
   128
 43
0.0
 10
449.3158674732
 20
344.1601321562
 10
449.3282775236
 20
344.2801561835
 10
449.3320055197
 20
344.2955782729
  0
ARC
  5
31B
330
1F
100
AcDbEntity
  8
0
  6
Continuous
 62
     7
370
    25
100
AcDbCircle
 10
450.3156147131
 20
343.2759322851
 30
0.0
 40
0.9998451901165336
100
AcDbArc
 50
180.8020060385
 51
247.6943161013
  0
LINE
  5
31C
330
1F
100
AcDbEntity
  8
0
  6
Continuous
 62
     7
370
    25
100
AcDbLine
 10
449.3158674732
 20
343.2619372631
 30
0.0
 11
449.3158674732
 21
344.1601321562
 31
0.0
  0
LINE
  5
31D
330
1F
100
AcDbEntity
  8
0
  6
Continuous
 62
     7
370
    25
100
AcDbLine
 10
333.2558836385
 20
334.8863404123
 30
0.0
 11
333.2558836385
 21
334.6414179788
 31
0.0
  0
LINE
  5
31E
330
1F
100
AcDbEntity
  8
0
  6
Continuous
 62
     7
370
    25
100
AcDbLine
 10
333.2558836385
 20
334.8863404123
 30
0.0
 11
338.2056311068
 21
332.028912021
 31
0.0
  0
LINE
  5
31F
330
1F
100
AcDbEntity
  8
0
  6
Continuous
 62
     7
370
    25
100
AcDbLine
 10
338.2056311068
 20
332.028912021
 30
0.0
 11
338.2056311068
 21
331.7839895874
 31
0.0
  0
LINE
  5
320
330
1F
100
AcDbEntity
  8
0
  6
Continuous
 62
     7
370
    25
100
AcDbLine
 10
340.1855300941
 20
314.2285081019
 30
0.0
 11
372.1467566037
 21
295.7776847747
 31
0.0
  0
LINE
  5
321
330
1F
100
AcDbEntity
  8
0
  6
Continuous
 62
     7
370
    25
100
AcDbLine
 10
372.1467566037
 20
295.7776847747
 30
0.0
 11
372.1467566037
 21
290.0618990915
 31
0.0
  0
LINE
  5
322
330
1F
100
AcDbEntity
  8
0
  6
Continuous
 62
     7
370
    25
100
AcDbLine
 10
340.1855300941
 20
308.5127224187
 30
0.0
 11
372.1467566037
 21
290.0618990915
 31
0.0
  0
LINE
  5
323
330
1F
100
AcDbEntity
  8
0
  6
Continuous
 62
     7
370
    25
100
AcDbLine
 10
372.1467566037
 20
295.7776847747
 30
0.0
 11
385.5817854463
 21
303.5335618371
 31
0.0
  0
LINE
  5
324
330
1F
100
AcDbEntity
  8
0
  6
Continuous
 62
     7
370
    25
100
AcDbLine
 10
372.1467566037
 20
290.0618990915
 30
0.0
 11
385.5817854463
 21
297.8177761539
 31
0.0
  0
LINE
  5
325
330
1F
100
AcDbEntity
  8
0
  6
Continuous
 62
     7
370
    25
100
AcDbLine
 10
385.5817854463
 20
303.5335618371
 30
0.0
 11
385.5817854463
 21
297.8177761539
 31
0.0
  0
LINE
  5
326
330
1F
100
AcDbEntity
  8
0
  6
Continuous
 62
     7
370
    25
100
AcDbLine
 10
352.7013201211
 20
322.5150504369
 30
0.0
 11
340.1855300941
 21
315.2898386473
 31
0.0
  0
LWPOLYLINE
  5
327
330
1F
100
AcDbEntity
  8
0
  6
Continuous
 62
     7
370
    25
100
AcDbPolyline
 90
       34
 70
   128
 43
0.0
 10
354.4690870741
 20
317.412499738
 10
354.615686253
 20
317.3426233916
 10
354.7825436371
 20
317.2900261165
 10
354.9636285657
 20
317.2566089153
 10
355.1523961577
 20
317.2435795728
 10
355.3420238605
 20
317.2514090033
 10
355.5256580349
 20
317.2798142309
 10
355.6966616632
 20
317.3277686165
 10
355.848854229
 20
317.3935389638
 10
355.9767350962
 20
317.4747481609
 10
356.0756823172
 20
317.5684610961
 10
356.1421196816
 20
317.6712907396
 10
356.1736459699
 20
317.7795205601
 10
356.1691217399
 20
317.88923885
 10
356.1287105092
 20
317.9964801044
 10
356.0538728448
 20
318.097368345
 10
355.947313575
 20
318.1882572079
 10
355.8128840294
 20
318.2658617327
 10
355.655442842
 20
318.3273770898
 10
355.4806803475
 20
318.3705799538
 10
355.2949129179
 20
318.3939088608
 10
355.1048546721
 20
318.3965206431
 10
354.9173748102
 20
318.3783209043
 10
354.7392493429
 20
318.3399674302
 10
354.5769161888
 20
318.2828464154
 10
354.4362424909
 20
318.2090223621
 10
354.3223125632
 20
318.121163464
 10
354.2392441303
 20
318.0224451706
 10
354.1900395015
 20
317.9164354183
 10
354.1764770606
 20
317.8069656756
 10
354.1990469893
 20
317.6979924643
 10
354.2569335517
 20
317.5934543601
 10
354.3480445766
 20
317.4971296426
 10
354.4690870741
 20
317.412499738
  0
LWPOLYLINE
  5
328
330
1F
100
AcDbEntity
  8
0
  6
Continuous
 62
     7
370
    25
100
AcDbPolyline
 90
       34
 70
   128
 43
0.0
 10
371.4396498226
 20
298.6351131661
 10
371.5862490015
 20
298.5652368197
 10
371.7531063856
 20
298.5126395446
 10
371.9341913142
 20
298.4792223434
 10
372.1229589062
 20
298.4661930009
 10
372.312586609
 20
298.4740224314
 10
372.4962207833
 20
298.5024276589
 10
372.6672244117
 20
298.5503820446
 10
372.8194169774
 20
298.6161523918
 10
372.9472978447
 20
298.697361589
 10
373.0462450657
 20
298.7910745242
 10
373.11268243
 20
298.8939041676
 10
373.1442087184
 20
299.0021339882
 10
373.1396844884
 20
299.1118522781
 10
373.0992732577
 20
299.2190935325
 10
373.0244355933
 20
299.3199817731
 10
372.9178763235
 20
299.410870636
 10
372.7834467779
 20
299.4884751608
 10
372.6260055905
 20
299.5499905179
 10
372.451243096
 20
299.5931933819
 10
372.2654756664
 20
299.6165222888
 10
372.0754174205
 20
299.6191340712
 10
371.8879375586
 20
299.6009343323
 10
371.7098120914
 20
299.5625808583
 10
371.5474789372
 20
299.5054598434
 10
371.4068052394
 20
299.4316357902
 10
371.2928753117
 20
299.3437768921
 10
371.2098068787
 20
299.2450585987
 10
371.16060225
 20
299.1390488464
 10
371.147039809
 20
299.0295791037
 10
371.1696097378
 20
298.9206058924
 10
371.2274963002
 20
298.8160677882
 10
371.318607325
 20
298.7197430707
 10
371.4396498226
 20
298.6351131661
  0
LWPOLYLINE
  5
329
330
1F
100
AcDbEntity
  8
0
  6
Continuous
 62
     7
370
    25
100
AcDbPolyline
 90
       34
 70
   128
 43
0.0
 10
379.2178244156
 20
303.1253577811
 10
379.3644235946
 20
303.0554814347
 10
379.5312809786
 20
303.0028841596
 10
379.7123659072
 20
302.9694669584
 10
379.9011334992
 20
302.9564376159
 10
380.090761202
 20
302.9642670464
 10
380.2743953764
 20
302.992672274
 10
380.4453990048
 20
303.0406266596
 10
380.5975915705
 20
303.1063970069
 10
380.7254724377
 20
303.1876062041
 10
380.8244196587
 20
303.2813191392
 10
380.8908570231
 20
303.3841487827
 10
380.9223833114
 20
303.4923786032
 10
380.9178590815
 20
303.6020968931
 10
380.8774478507
 20
303.7093381475
 10
380.8026101864
 20
303.8102263881
 10
380.6960509165
 20
303.901115251
 10
380.5616213709
 20
303.9787197758
 10
380.4041801835
 20
304.0402351329
 10
380.2294176891
 20
304.0834379969
 10
380.0436502594
 20
304.1067669039
 10
379.8535920136
 20
304.1093786862
 10
379.6661121517
 20
304.0911789474
 10
379.4879866844
 20
304.0528254733
 10
379.3256535303
 20
303.9957044585
 10
379.1849798324
 20
303.9218804052
 10
379.0710499048
 20
303.8340215071
 10
378.9879814718
 20
303.7353032138
 10
378.9387768431
 20
303.6292934614
 10
378.9252144021
 20
303.5198237187
 10
378.9477843308
 20
303.4108505074
 10
379.0056708932
 20
303.3063124032
 10
379.0967819181
 20
303.2099876858
 10
379.2178244156
 20
303.1253577811
  0
LWPOLYLINE
  5
32A
330
1F
100
AcDbEntity
  8
0
  6
Continuous
 62
     7
370
    25
100
AcDbPolyline
 90
       34
 70
   128
 43
0.0
 10
346.690912481
 20
312.922255123
 10
346.83751166
 20
312.8523787766
 10
347.004369044
 20
312.7997815015
 10
347.1854539727
 20
312.7663643003
 10
347.3742215647
 20
312.7533349578
 10
347.5638492675
 20
312.7611643883
 10
347.7474834418
 20
312.7895696158
 10
347.9184870702
 20
312.8375240015
 10
348.0706796359
 20
312.9032943487
 10
348.1985605031
 20
312.9845035459
 10
348.2975077241
 20
313.0782164811
 10
348.3639450885
 20
313.1810461245
 10
348.3954713768
 20
313.2892759451
 10
348.3909471469
 20
313.398994235
 10
348.3505359161
 20
313.5062354894
 10
348.2756982518
 20
313.60712373
 10
348.169138982
 20
313.6980125929
 10
348.0347094363
 20
313.7756171177
 10
347.8772682489
 20
313.8371324748
 10
347.7025057545
 20
313.8803353388
 10
347.5167383249
 20
313.9036642457
 10
347.326680079
 20
313.9062760281
 10
347.1392002171
 20
313.8880762892
 10
346.9610747498
 20
313.8497228152
 10
346.7987415957
 20
313.7926018003
 10
346.6580678978
 20
313.7187777471
 10
346.5441379702
 20
313.630918849
 10
346.4610695372
 20
313.5322005556
 10
346.4118649085
 20
313.4261908033
 10
346.3983024675
 20
313.3167210606
 10
346.4208723962
 20
313.2077478493
 10
346.4787589586
 20
313.1032097451
 10
346.5698699835
 20
313.0068850276
 10
346.690912481
 20
312.922255123
  0
LINE
  5
32B
330
1F
100
AcDbEntity
  8
0
  6
Continuous
 62
     7
370
    25
100
AcDbLine
 10
385.5817854463
 20
303.5335618371
 30
0.0
 11
352.7013201211
 21
322.5150504369
 31
0.0
  0
LINE
  5
32C
330
1F
100
AcDbEntity
  8
0
  6
Continuous
 62
     7
370
    25
100
AcDbLine
 10
338.2056311068
 20
332.028912021
 30
0.0
 11
351.6406599493
 21
339.7847890833
 31
0.0
  0
LINE
  5
32D
330
1F
100
AcDbEntity
  8
0
  6
Continuous
 62
     7
370
    25
100
AcDbLine
 10
340.1855300941
 20
317.7392620329
 30
0.0
 11
351.6406599493
 21
324.3521677386
 31
0.0
  0
LINE
  5
32E
330
1F
100
AcDbEntity
  8
0
  6
Continuous
 62
     7
370
    25
100
AcDbLine
 10
351.6406599493
 20
339.7847890833
 30
0.0
 11
351.6406599493
 21
324.3521677386
 31
0.0
  0
LINE
  5
32F
330
1F
100
AcDbEntity
  8
0
  6
Continuous
 62
     7
370
    25
100
AcDbLine
 10
346.690912481
 20
342.6422174746
 30
0.0
 11
333.2558836385
 21
334.8863404123
 31
0.0
  0
LINE
  5
330
330
1F
100
AcDbEntity
  8
0
  6
Continuous
 62
     7
370
    25
100
AcDbLine
 10
351.6406599493
 20
339.7847890833
 30
0.0
 11
346.690912481
 21
342.6422174746
 31
0.0
  0
LINE
  5
331
330
1F
100
AcDbEntity
  8
0
  6
Continuous
 62
     7
370
    25
100
AcDbLine
 10
351.6406599493
 20
324.3521677386
 30
0.0
 11
352.7013201211
 21
322.5150504369
 31
0.0
  0
LINE
  5
332
330
1F
100
AcDbEntity
  8
0
  6
Continuous
 62
     7
370
    25
100
AcDbLine
 10
424.755501124
 20
387.7079452473
 30
0.0
 11
424.755501124
 21
365.3347270016
 31
0.0
  0
LINE
  5
333
330
1F
100
AcDbEntity
  8
0
  6
Continuous
 62
     7
370
    25
100
AcDbLine
 10
424.755501124
 20
387.7079452473
 30
0.0
 11
429.7052485923
 21
384.8505168559
 31
0.0
  0
LINE
  5
334
330
1F
100
AcDbEntity
  8
0
  6
Continuous
 62
     7
370
    25
100
AcDbLine
 10
429.7052485923
 20
384.8505168559
 30
0.0
 11
429.7052485923
 21
369.4178955112
 31
0.0
  0
LINE
  5
335
330
1F
100
AcDbEntity
  8
0
  6
Continuous
 62
     7
370
    25
100
AcDbLine
 10
430.7659087641
 20
367.5807782095
 30
0.0
 11
429.7052485923
 21
369.4178955112
 31
0.0
  0
LINE
  5
336
330
1F
100
AcDbEntity
  8
0
  6
Continuous
 62
     7
370
    25
100
AcDbLine
 10
430.7659087641
 20
367.5807782095
 30
0.0
 11
463.6463740893
 21
348.5992896097
 31
0.0
  0
LINE
  5
337
330
1F
100
AcDbEntity
  8
0
  6
Continuous
 62
     7
370
    25
100
AcDbLine
 10
463.6463740893
 20
348.5992896097
 30
0.0
 11
463.6463740893
 21
342.8835039265
 31
0.0
  0
LINE
  5
338
330
1F
100
AcDbEntity
  8
0
  6
Continuous
 62
     7
370
    25
100
AcDbLine
 10
424.755501124
 20
365.3347270016
 30
0.0
 11
463.6463740893
 21
342.8835039265
 31
0.0
  0
LINE
  5
339
330
1F
100
AcDbEntity
  8
0
  6
Continuous
 62
     7
370
    25
100
AcDbLine
 10
463.6463740893
 20
348.5992896097
 30
0.0
 11
477.0814029318
 21
356.355166672
 31
0.0
  0
LINE
  5
33A
330
1F
100
AcDbEntity
  8
0
  6
Continuous
 62
     7
370
    25
100
AcDbLine
 10
444.2009376066
 20
375.3366552719
 30
0.0
 11
430.7659087641
 21
367.5807782095
 31
0.0
  0
LWPOLYLINE
  5
33B
330
1F
100
AcDbEntity
  8
0
  6
Continuous
 62
     7
370
    25
100
AcDbPolyline
 90
       34
 70
   128
 43
0.0
 10
445.9687045596
 20
370.234104573
 10
446.1153037386
 20
370.1642282265
 10
446.2821611226
 20
370.1116309514
 10
446.4632460512
 20
370.0782137503
 10
446.6520136433
 20
370.0651844077
 10
446.8416413461
 20
370.0730138383
 10
447.0252755204
 20
370.1014190658
 10
447.1962791488
 20
370.1493734514
 10
447.3484717145
 20
370.2151437987
 10
447.4763525817
 20
370.2963529959
 10
447.5752998027
 20
370.390065931
 10
447.6417371671
 20
370.4928955745
 10
447.6732634554
 20
370.601125395
 10
447.6687392255
 20
370.7108436849
 10
447.6283279947
 20
370.8180849394
 10
447.5534903304
 20
370.9189731799
 10
447.4469310605
 20
371.0098620428
 10
447.3125015149
 20
371.0874665676
 10
447.1550603275
 20
371.1489819247
 10
446.9802978331
 20
371.1921847888
 10
446.7945304035
 20
371.2155136957
 10
446.6044721576
 20
371.218125478
 10
446.4169922957
 20
371.1999257392
 10
446.2388668284
 20
371.1615722651
 10
446.0765336743
 20
371.1044512503
 10
445.9358599764
 20
371.030627197
 10
445.8219300488
 20
370.942768299
 10
445.7388616158
 20
370.8440500056
 10
445.6896569871
 20
370.7380402532
 10
445.6760945461
 20
370.6285705105
 10
445.6986644748
 20
370.5195972992
 10
445.7565510372
 20
370.4150591951
 10
445.8476620621
 20
370.3187344776
 10
445.9687045596
 20
370.234104573
  0
LWPOLYLINE
  5
33C
330
1F
100
AcDbEntity
  8
0
  6
Continuous
 62
     7
370
    25
100
AcDbPolyline
 90
       34
 70
   128
 43
0.0
 10
462.9392673081
 20
351.456718001
 10
463.085866487
 20
351.3868416546
 10
463.2527238711
 20
351.3342443795
 10
463.4338087997
 20
351.3008271783
 10
463.6225763917
 20
351.2877978358
 10
463.8122040945
 20
351.2956272663
 10
463.9958382689
 20
351.3240324939
 10
464.1668418973
 20
351.3719868795
 10
464.319034463
 20
351.4377572268
 10
464.4469153302
 20
351.518966424
 10
464.5458625512
 20
351.6126793591
 10
464.6122999156
 20
351.7155090026
 10
464.6438262039
 20
351.8237388231
 10
464.639301974
 20
351.933457113
 10
464.5988907432
 20
352.0406983674
 10
464.5240530788
 20
352.141586608
 10
464.417493809
 20
352.2324754709
 10
464.2830642634
 20
352.3100799957
 10
464.125623076
 20
352.3715953528
 10
463.9508605815
 20
352.4147982168
 10
463.7650931519
 20
352.4381271238
 10
463.5750349061
 20
352.4407389061
 10
463.3875550442
 20
352.4225391673
 10
463.2094295769
 20
352.3841856932
 10
463.0470964228
 20
352.3270646784
 10
462.9064227249
 20
352.2532406251
 10
462.7924927973
 20
352.165381727
 10
462.7094243643
 20
352.0666634337
 10
462.6602197356
 20
351.9606536813
 10
462.6466572946
 20
351.8511839386
 10
462.6692272233
 20
351.7422107273
 10
462.7271137857
 20
351.6376726232
 10
462.8182248106
 20
351.5413479057
 10
462.9392673081
 20
351.456718001
  0
LWPOLYLINE
  5
33D
330
1F
100
AcDbEntity
  8
0
  6
Continuous
 62
     7
370
    25
100
AcDbPolyline
 90
       34
 70
   128
 43
0.0
 10
470.7174419011
 20
355.9469626161
 10
470.8640410801
 20
355.8770862696
 10
471.0308984642
 20
355.8244889945
 10
471.2119833928
 20
355.7910717934
 10
471.4007509848
 20
355.7780424508
 10
471.5903786876
 20
355.7858718814
 10
471.7740128619
 20
355.8142771089
 10
471.9450164903
 20
355.8622314945
 10
472.097209056
 20
355.9280018418
 10
472.2250899233
 20
356.009211039
 10
472.3240371442
 20
356.1029239741
 10
472.3904745086
 20
356.2057536176
 10
472.4220007969
 20
356.3139834381
 10
472.417476567
 20
356.423701728
 10
472.3770653363
 20
356.5309429825
 10
472.3022276719
 20
356.631831223
 10
472.1956684021
 20
356.7227200859
 10
472.0612388565
 20
356.8003246107
 10
471.9037976691
 20
356.8618399678
 10
471.7290351746
 20
356.9050428319
 10
471.543267745
 20
356.9283717388
 10
471.3532094991
 20
356.9309835211
 10
471.1657296372
 20
356.9127837823
 10
470.98760417
 20
356.8744303082
 10
470.8252710158
 20
356.8173092934
 10
470.6845973179
 20
356.7434852401
 10
470.5706673903
 20
356.6556263421
 10
470.4875989573
 20
356.5569080487
 10
470.4383943286
 20
356.4508982963
 10
470.4248318876
 20
356.3414285536
 10
470.4474018164
 20
356.2324553423
 10
470.5052883787
 20
356.1279172382
 10
470.5963994036
 20
356.0315925207
 10
470.7174419011
 20
355.9469626161
  0
LWPOLYLINE
  5
33E
330
1F
100
AcDbEntity
  8
0
  6
Continuous
 62
     7
370
    25
100
AcDbPolyline
 90
       34
 70
   128
 43
0.0
 10
438.1905299666
 20
365.7438599579
 10
438.3371291455
 20
365.6739836115
 10
438.5039865296
 20
365.6213863364
 10
438.6850714582
 20
365.5879691352
 10
438.8738390502
 20
365.5749397927
 10
439.063466753
 20
365.5827692232
 10
439.2471009273
 20
365.6111744508
 10
439.4181045557
 20
365.6591288364
 10
439.5702971215
 20
365.7248991837
 10
439.6981779887
 20
365.8061083809
 10
439.7971252097
 20
365.899821316
 10
439.863562574
 20
366.0026509595
 10
439.8950888624
 20
366.11088078
 10
439.8905646324
 20
366.2205990699
 10
439.8501534017
 20
366.3278403243
 10
439.7753157373
 20
366.4287285649
 10
439.6687564675
 20
366.5196174278
 10
439.5343269219
 20
366.5972219526
 10
439.3768857345
 20
366.6587373097
 10
439.20212324
 20
366.7019401737
 10
439.0163558104
 20
366.7252690807
 10
438.8262975646
 20
366.727880863
 10
438.6388177026
 20
366.7096811242
 10
438.4606922354
 20
366.6713276501
 10
438.2983590812
 20
366.6142066353
 10
438.1576853834
 20
366.540382582
 10
438.0437554557
 20
366.4525236839
 10
437.9606870228
 20
366.3538053906
 10
437.911482394
 20
366.2477956382
 10
437.8979199531
 20
366.1383258955
 10
437.9204898818
 20
366.0293526842
 10
437.9783764442
 20
365.9248145801
 10
438.069487469
 20
365.8284898626
 10
438.1905299666
 20
365.7438599579
  0
LINE
  5
33F
330
1F
100
AcDbEntity
  8
0
  6
Continuous
 62
     7
370
    25
100
AcDbLine
 10
477.0814029318
 20
356.355166672
 30
0.0
 11
444.2009376066
 21
375.3366552719
 31
0.0
  0
LINE
  5
340
330
1F
100
AcDbEntity
  8
0
  6
Continuous
 62
     7
370
    25
100
AcDbLine
 10
463.6463740893
 20
342.8835039265
 30
0.0
 11
477.0814029318
 21
350.6393809888
 31
0.0
  0
LINE
  5
341
330
1F
100
AcDbEntity
  8
0
  6
Continuous
 62
     7
370
    25
100
AcDbLine
 10
477.0814029318
 20
356.355166672
 30
0.0
 11
477.0814029318
 21
350.6393809888
 31
0.0
  0
LINE
  5
342
330
1F
100
AcDbEntity
  8
0
  6
Continuous
 62
     7
370
    25
100
AcDbLine
 10
429.7052485923
 20
384.8505168559
 30
0.0
 11
443.1402774349
 21
392.6063939182
 31
0.0
  0
LINE
  5
343
330
1F
100
AcDbEntity
  8
0
  6
Continuous
 62
     7
370
    25
100
AcDbLine
 10
438.1905299666
 20
395.4638223096
 30
0.0
 11
424.755501124
 21
387.7079452473
 31
0.0
  0
LINE
  5
344
330
1F
100
AcDbEntity
  8
0
  6
Continuous
 62
     7
370
    25
100
AcDbLine
 10
443.1402774349
 20
392.6063939182
 30
0.0
 11
438.1905299666
 21
395.4638223096
 31
0.0
  0
LINE
  5
345
330
1F
100
AcDbEntity
  8
0
  6
Continuous
 62
     7
370
    25
100
AcDbLine
 10
429.7052485923
 20
369.4178955112
 30
0.0
 11
443.1402774349
 21
377.1737725736
 31
0.0
  0
LINE
  5
346
330
1F
100
AcDbEntity
  8
0
  6
Continuous
 62
     7
370
    25
100
AcDbLine
 10
443.1402774349
 20
392.6063939182
 30
0.0
 11
443.1402774349
 21
377.1737725736
 31
0.0
  0
LINE
  5
347
330
1F
100
AcDbEntity
  8
0
  6
Continuous
 62
     7
370
    25
100
AcDbLine
 10
443.1402774349
 20
377.1737725736
 30
0.0
 11
444.2009376066
 21
375.3366552719
 31
0.0
  0
ARC
  5
348
330
1F
100
AcDbEntity
  8
0
  6
Continuous
 62
     7
370
    25
100
AcDbCircle
 10
357.2244206191
 20
374.6658256609
 30
0.0
 40
0.3056307217840224
100
AcDbArc
 50
290.7834207995
 51
69.2165792005
  0
LINE
  5
349
330
1F
100
AcDbEntity
  8
0
  6
Continuous
 62
     7
370
    25
100
AcDbLine
 10
357.3328695379
 20
374.9515685
 30
0.0
 11
356.1307880099
 21
375.6455153951
 31
0.0
  0
ARC
  5
34A
330
1F
100
AcDbEntity
  8
0
  6
Continuous
 62
     7
370
    25
100
AcDbCircle
 10
355.635813263
 20
374.6902176356
 30
0.0
 40
1.075915335537993
100
AcDbArc
 50
62.6096722366
 51
117.3903277634
  0
LINE
  5
34B
330
1F
100
AcDbEntity
  8
0
  6
Continuous
 62
     7
370
    25
100
AcDbLine
 10
355.1408385162
 20
375.6455153951
 30
0.0
 11
354.99941716
 21
375.5638745839
 31
0.0
  0
ARC
  5
34C
330
1F
100
AcDbEntity
  8
0
  6
Continuous
 62
     7
370
    25
100
AcDbCircle
 10
355.1078660787
 20
375.2781317448
 30
0.0
 40
0.3056307217840022
100
AcDbArc
 50
110.7834207995
 51
249.2165792005
  0
LINE
  5
34D
330
1F
100
AcDbEntity
  8
0
  6
Continuous
 62
     7
370
    25
100
AcDbLine
 10
354.99941716
 20
374.9923889056
 30
0.0
 11
356.201498688
 21
374.2984420106
 31
0.0
  0
ARC
  5
34E
330
1F
100
AcDbEntity
  8
0
  6
Continuous
 62
     7
370
    25
100
AcDbCircle
 10
356.6964734348
 20
375.25373977
 30
0.0
 40
1.075915335538623
100
AcDbArc
 50
242.6096722366
 51
297.3903277634
  0
LINE
  5
34F
330
1F
100
AcDbEntity
  8
0
  6
Continuous
 62
     7
370
    25
100
AcDbLine
 10
357.1914481816
 20
374.2984420106
 30
0.0
 11
357.3328695379
 21
374.3800828218
 31
0.0
  0
LINE
  5
350
330
1F
100
AcDbEntity
  8
0
  6
Continuous
 62
     7
370
    25
100
AcDbLine
 10
357.4742908941
 20
375.0332093112
 30
0.0
 11
356.2722093661
 21
375.7271562063
 31
0.0
  0
LWPOLYLINE
  5
351
330
1F
100
AcDbEntity
  8
0
  6
Continuous
 62
     7
370
    25
100
AcDbPolyline
 90
        9
 70
   128
 43
0.0
 10
357.4742908941
 20
374.2984420106
 10
357.5862174421
 20
374.377174179
 10
357.6693863703
 20
374.4669990621
 10
357.7206015434
 20
374.5644647398
 10
357.7378947911
 20
374.6658256609
 10
357.7206015434
 20
374.767186582
 10
357.6693863703
 20
374.8646522597
 10
357.5862174421
 20
374.9544771427
 10
357.4742908941
 20
375.0332093112
  0
LINE
  5
352
330
1F
100
AcDbEntity
  8
0
  6
Continuous
 62
     7
370
    25
100
AcDbLine
 10
357.3328695379
 20
374.2168011994
 30
0.0
 11
357.4742908941
 21
374.2984420106
 31
0.0
  0
ARC
  5
353
330
1F
100
AcDbEntity
  8
0
  6
Continuous
 62
     7
370
    25
100
AcDbCircle
 10
356.6964734348
 20
375.4450411759
 30
0.0
 40
1.383319717120807
100
AcDbArc
 50
242.6096722366
 51
297.3903277634
  0
LINE
  5
354
330
1F
100
AcDbEntity
  8
0
  6
Continuous
 62
     7
370
    25
100
AcDbLine
 10
354.8579958037
 20
374.9107480944
 30
0.0
 11
356.0600773317
 21
374.2168011994
 31
0.0
  0
LWPOLYLINE
  5
355
330
1F
100
AcDbEntity
  8
0
  6
Continuous
 62
     7
370
    25
100
AcDbPolyline
 90
        9
 70
   128
 43
0.0
 10
354.8579958037
 20
375.6455153951
 10
354.7460692557
 20
375.5667832266
 10
354.6629003275
 20
375.4769583436
 10
354.6116851544
 20
375.3794926658
 10
354.5943919068
 20
375.2781317448
 10
354.6116851544
 20
375.1767708237
 10
354.6629003275
 20
375.079305146
 10
354.7460692557
 20
374.9894802629
 10
354.8579958037
 20
374.9107480944
  0
LINE
  5
356
330
1F
100
AcDbEntity
  8
0
  6
Continuous
 62
     7
370
    25
100
AcDbLine
 10
354.99941716
 20
375.7271562063
 30
0.0
 11
354.8579958037
 21
375.6455153951
 31
0.0
  0
ARC
  5
357
330
1F
100
AcDbEntity
  8
0
  6
Continuous
 62
     7
370
    25
100
AcDbCircle
 10
355.635813263
 20
374.4989162298
 30
0.0
 40
1.383319717121187
100
AcDbArc
 50
62.6096722366
 51
117.3903277634
  0
ARC
  5
358
330
1F
100
AcDbEntity
  8
0
  6
Continuous
 62
     7
370
    25
100
AcDbCircle
 10
367.6943667838
 20
382.54416394
 30
0.0
 40
0.3056307217840224
100
AcDbArc
 50
110.7834207995
 51
249.2165792005
  0
LINE
  5
359
330
1F
100
AcDbEntity
  8
0
  6
Continuous
 62
     7
370
    25
100
AcDbLine
 10
367.5859178651
 20
382.2584211008
 30
0.0
 11
368.7879993931
 21
381.5644742058
 31
0.0
  0
ARC
  5
35A
330
1F
100
AcDbEntity
  8
0
  6
Continuous
 62
     7
370
    25
100
AcDbCircle
 10
369.2829741399
 20
382.5197719653
 30
0.0
 40
1.075915335538421
100
AcDbArc
 50
242.6096722366
 51
297.3903277634
  0
LINE
  5
35B
330
1F
100
AcDbEntity
  8
0
  6
Continuous
 62
     7
370
    25
100
AcDbLine
 10
369.7779488868
 20
381.5644742058
 30
0.0
 11
369.919370243
 21
381.646115017
 31
0.0
  0
ARC
  5
35C
330
1F
100
AcDbEntity
  8
0
  6
Continuous
 62
     7
370
    25
100
AcDbCircle
 10
369.8109213242
 20
381.9318578561
 30
0.0
 40
0.3056307217840022
100
AcDbArc
 50
290.7834207995
 51
69.2165792005
  0
LINE
  5
35D
330
1F
100
AcDbEntity
  8
0
  6
Continuous
 62
     7
370
    25
100
AcDbLine
 10
369.919370243
 20
382.2176006953
 30
0.0
 11
368.717288715
 21
382.9115475903
 31
0.0
  0
ARC
  5
35E
330
1F
100
AcDbEntity
  8
0
  6
Continuous
 62
     7
370
    25
100
AcDbCircle
 10
368.2223139682
 20
381.9562498308
 30
0.0
 40
1.075915335538574
100
AcDbArc
 50
62.6096722366
 51
117.3903277634
  0
LINE
  5
35F
330
1F
100
AcDbEntity
  8
0
  6
Continuous
 62
     7
370
    25
100
AcDbLine
 10
367.7273392213
 20
382.9115475903
 30
0.0
 11
367.5859178651
 21
382.8299067791
 31
0.0
  0
LINE
  5
360
330
1F
100
AcDbEntity
  8
0
  6
Continuous
 62
     7
370
    25
100
AcDbLine
 10
367.4444965088
 20
382.1767802897
 30
0.0
 11
368.6465780369
 21
381.4828333946
 31
0.0
  0
LWPOLYLINE
  5
361
330
1F
100
AcDbEntity
  8
0
  6
Continuous
 62
     7
370
    25
100
AcDbPolyline
 90
        9
 70
   128
 43
0.0
 10
367.4444965088
 20
382.9115475903
 10
367.3325699608
 20
382.8328154218
 10
367.2494010327
 20
382.7429905388
 10
367.1981858596
 20
382.6455248611
 10
367.1808926119
 20
382.54416394
 10
367.1981858596
 20
382.4428030189
 10
367.2494010327
 20
382.3453373412
 10
367.3325699608
 20
382.2555124581
 10
367.4444965088
 20
382.1767802897
  0
LINE
  5
362
330
1F
100
AcDbEntity
  8
0
  6
Continuous
 62
     7
370
    25
100
AcDbLine
 10
367.5859178651
 20
382.9931884015
 30
0.0
 11
367.4444965088
 21
382.9115475903
 31
0.0
  0
ARC
  5
363
330
1F
100
AcDbEntity
  8
0
  6
Continuous
 62
     7
370
    25
100
AcDbCircle
 10
368.2223139682
 20
381.764948425
 30
0.0
 40
1.383319717120101
100
AcDbArc
 50
62.6096722366
 51
117.3903277634
  0
LINE
  5
364
330
1F
100
AcDbEntity
  8
0
  6
Continuous
 62
     7
370
    25
100
AcDbLine
 10
370.0607915992
 20
382.2992415064
 30
0.0
 11
368.8587100712
 21
382.9931884015
 31
0.0
  0
LWPOLYLINE
  5
365
330
1F
100
AcDbEntity
  8
0
  6
Continuous
 62
     7
370
    25
100
AcDbPolyline
 90
        9
 70
   128
 43
0.0
 10
370.0607915992
 20
381.5644742058
 10
370.1727181472
 20
381.6432063743
 10
370.2558870754
 20
381.7330312573
 10
370.3071022485
 20
381.830496935
 10
370.3243954962
 20
381.9318578561
 10
370.3071022485
 20
382.0332187772
 10
370.2558870754
 20
382.1306844549
 10
370.1727181472
 20
382.220509338
 10
370.0607915992
 20
382.2992415064
  0
LINE
  5
366
330
1F
100
AcDbEntity
  8
0
  6
Continuous
 62
     7
370
    25
100
AcDbLine
 10
369.919370243
 20
381.4828333946
 30
0.0
 11
370.0607915992
 21
381.5644742058
 31
0.0
  0
ARC
  5
367
330
1F
100
AcDbEntity
  8
0
  6
Continuous
 62
     7
370
    25
100
AcDbCircle
 10
369.2829741399
 20
382.7110733711
 30
0.0
 40
1.38331971712063
100
AcDbArc
 50
242.6096722366
 51
297.3903277634
  0
LINE
  5
368
330
1F
100
AcDbEntity
  8
0
  6
Continuous
 62
     7
370
    25
100
AcDbLine
 10
371.1568071101
 20
357.5008451098
 30
0.0
 11
325.9019731141
 21
383.6259046881
 31
0.0
  0
LWPOLYLINE
  5
369
330
1F
100
AcDbEntity
  8
0
  6
Continuous
 62
     7
370
    25
100
AcDbPolyline
 90
        9
 70
   128
 43
0.0
 10
357.4742908941
 20
375.0332093112
 10
357.5862174421
 20
374.9544771427
 10
357.6693863703
 20
374.8646522597
 10
357.7206015434
 20
374.767186582
 10
357.7378947911
 20
374.6658256609
 10
357.7206015434
 20
374.5644647398
 10
357.6693863703
 20
374.4669990621
 10
357.5862174421
 20
374.377174179
 10
357.4742908941
 20
374.2984420106
  0
LWPOLYLINE
  5
36A
330
1F
100
AcDbEntity
  8
0
  6
Continuous
 62
     7
370
    25
100
AcDbPolyline
 90
        9
 70
   128
 43
0.0
 10
354.8579958037
 20
374.9107480944
 10
354.7460692557
 20
374.9894802629
 10
354.6629003275
 20
375.079305146
 10
354.6116851544
 20
375.1767708237
 10
354.5943919068
 20
375.2781317448
 10
354.6116851544
 20
375.3794926658
 10
354.6629003275
 20
375.4769583436
 10
354.7460692557
 20
375.5667832266
 10
354.8579958037
 20
375.6455153951
  0
LWPOLYLINE
  5
36B
330
1F
100
AcDbEntity
  8
0
  6
Continuous
 62
     7
370
    25
100
AcDbPolyline
 90
        9
 70
   128
 43
0.0
 10
370.0607915992
 20
381.5644742058
 10
370.1727181472
 20
381.6432063743
 10
370.2558870754
 20
381.7330312573
 10
370.3071022485
 20
381.830496935
 10
370.3243954962
 20
381.9318578561
 10
370.3071022485
 20
382.0332187772
 10
370.2558870754
 20
382.1306844549
 10
370.1727181472
 20
382.220509338
 10
370.0607915992
 20
382.2992415064
  0
LWPOLYLINE
  5
36C
330
1F
100
AcDbEntity
  8
0
  6
Continuous
 62
     7
370
    25
100
AcDbPolyline
 90
        9
 70
   128
 43
0.0
 10
367.4444965088
 20
382.1767802897
 10
367.3325699608
 20
382.2555124581
 10
367.2494010327
 20
382.3453373412
 10
367.1981858596
 20
382.4428030189
 10
367.1808926119
 20
382.54416394
 10
367.1981858596
 20
382.6455248611
 10
367.2494010327
 20
382.7429905388
 10
367.3325699608
 20
382.8328154218
 10
367.4444965088
 20
382.9115475903
  0
LINE
  5
36D
330
1F
100
AcDbEntity
  8
0
  6
Continuous
 62
     7
370
    25
100
AcDbLine
 10
325.9019731141
 20
383.6259046881
 30
0.0
 11
353.7619802929
 21
399.7091444911
 31
0.0
  0
LINE
  5
36E
330
1F
100
AcDbEntity
  8
0
  6
Continuous
 62
     7
370
    25
100
AcDbLine
 10
353.7619802929
 20
399.7091444911
 30
0.0
 11
399.0168142888
 21
373.5840849127
 31
0.0
  0
LINE
  5
36F
330
1F
100
AcDbEntity
  8
0
  6
Continuous
 62
     7
370
    25
100
AcDbLine
 10
399.0168142888
 20
373.5840849127
 30
0.0
 11
371.1568071101
 21
357.5008451098
 31
0.0
  0
LINE
  5
370
330
1F
100
AcDbEntity
  8
0
  6
Continuous
 62
     7
370
    25
100
AcDbLine
 10
371.1568071101
 20
357.5046234331
 30
0.0
 11
325.9085180713
 21
383.6259046881
 31
0.0
  0
LINE
  5
371
330
1F
100
AcDbEntity
  8
0
  6
Continuous
 62
     7
370
    25
100
AcDbLine
 10
399.0102693317
 20
373.5840849127
 30
0.0
 11
371.1568071101
 21
357.5046234331
 31
0.0
  0
LINE
  5
372
330
1F
100
AcDbEntity
  8
0
  6
Continuous
 62
     7
370
    25
100
AcDbLine
 10
353.7619802929
 20
399.7053661677
 30
0.0
 11
399.0102693317
 21
373.5840849127
 31
0.0
  0
LINE
  5
373
330
1F
100
AcDbEntity
  8
0
  6
Continuous
 62
     7
370
    25
100
AcDbLine
 10
325.9085180713
 20
383.6259046881
 30
0.0
 11
353.7619802929
 21
399.7053661677
 31
0.0
  0
LINE
  5
374
330
1F
100
AcDbEntity
  8
0
  6
Continuous
 62
     7
370
    25
100
AcDbLine
 10
399.4410783575
 20
373.5840849127
 30
0.0
 11
371.1568071101
 21
357.2559226763
 31
0.0
  0
LINE
  5
375
330
1F
100
AcDbEntity
  8
0
  6
Continuous
 62
     7
370
    25
100
AcDbLine
 10
371.1568071101
 20
357.2559226763
 30
0.0
 11
325.4777090454
 21
383.6259046881
 31
0.0
  0
LINE
  5
376
330
1F
100
AcDbEntity
  8
0
  6
Continuous
 62
     7
370
    25
100
AcDbLine
 10
325.4777090454
 20
383.6259046881
 30
0.0
 11
353.7619802929
 21
399.9540669246
 31
0.0
  0
LINE
  5
377
330
1F
100
AcDbEntity
  8
0
  6
Continuous
 62
     7
370
    25
100
AcDbLine
 10
353.7619802929
 20
399.9540669246
 30
0.0
 11
399.4410783575
 21
373.5840849127
 31
0.0
  0
LINE
  5
378
330
1F
100
AcDbEntity
  8
0
  6
Continuous
 62
     7
370
    25
100
AcDbLine
 10
399.4108096948
 20
373.4849703745
 30
0.0
 11
399.4410783575
 21
373.5840849127
 31
0.0
  0
LINE
  5
379
330
1F
100
AcDbEntity
  8
0
  6
Continuous
 62
     7
370
    25
100
AcDbLine
 10
371.1568071101
 20
357.1742818651
 30
0.0
 11
371.1568071101
 21
357.2559226763
 31
0.0
  0
LINE
  5
37A
330
1F
100
AcDbEntity
  8
0
  6
Continuous
 62
     7
370
    25
100
AcDbLine
 10
325.4928433768
 20
383.576347419
 30
0.0
 11
325.4777090454
 21
383.6259046881
 31
0.0
  0
ARC
  5
37B
330
1F
100
AcDbEntity
  8
0
  6
Continuous
 62
     7
370
    25
100
AcDbCircle
 10
340.9987028925
 20
366.3829111346
 30
0.0
 40
1.383319717120503
100
AcDbArc
 50
242.6096722366
 51
297.3903277634
  0
ARC
  5
37C
330
1F
100
AcDbEntity
  8
0
  6
Continuous
 62
     7
370
    25
100
AcDbCircle
 10
339.4100955364
 20
366.2160017035
 30
0.0
 40
0.3056307217840022
100
AcDbArc
 50
110.7834207995
 51
249.2165792005
  0
LINE
  5
37D
330
1F
100
AcDbEntity
  8
0
  6
Continuous
 62
     7
370
    25
100
AcDbLine
 10
339.3016466176
 20
365.9302588644
 30
0.0
 11
340.5037281456
 21
365.2363119693
 31
0.0
  0
ARC
  5
37E
330
1F
100
AcDbEntity
  8
0
  6
Continuous
 62
     7
370
    25
100
AcDbCircle
 10
340.9987028925
 20
366.1916097288
 30
0.0
 40
1.075915335537866
100
AcDbArc
 50
242.6096722366
 51
297.3903277634
  0
LINE
  5
37F
330
1F
100
AcDbEntity
  8
0
  6
Continuous
 62
     7
370
    25
100
AcDbLine
 10
341.4936776393
 20
365.2363119693
 30
0.0
 11
341.6350989955
 21
365.3179527805
 31
0.0
  0
ARC
  5
380
330
1F
100
AcDbEntity
  8
0
  6
Continuous
 62
     7
370
    25
100
AcDbCircle
 10
341.5266500768
 20
365.6036956197
 30
0.0
 40
0.3056307217840224
100
AcDbArc
 50
290.7834207995
 51
69.2165792005
  0
LINE
  5
381
330
1F
100
AcDbEntity
  8
0
  6
Continuous
 62
     7
370
    25
100
AcDbLine
 10
341.6350989955
 20
365.8894384588
 30
0.0
 11
340.4330174675
 21
366.5833853538
 31
0.0
  0
ARC
  5
382
330
1F
100
AcDbEntity
  8
0
  6
Continuous
 62
     7
370
    25
100
AcDbCircle
 10
339.9380427207
 20
365.6280875944
 30
0.0
 40
1.075915335538094
100
AcDbArc
 50
62.6096722366
 51
117.3903277634
  0
LINE
  5
383
330
1F
100
AcDbEntity
  8
0
  6
Continuous
 62
     7
370
    25
100
AcDbLine
 10
339.4430679739
 20
366.5833853538
 30
0.0
 11
339.3016466176
 21
366.5017445427
 31
0.0
  0
LINE
  5
384
330
1F
100
AcDbEntity
  8
0
  6
Continuous
 62
     7
370
    25
100
AcDbLine
 10
339.1602252614
 20
365.8486180532
 30
0.0
 11
340.3623067894
 21
365.1546711582
 31
0.0
  0
LWPOLYLINE
  5
385
330
1F
100
AcDbEntity
  8
0
  6
Continuous
 62
     7
370
    25
100
AcDbPolyline
 90
        9
 70
   128
 43
0.0
 10
339.1602252614
 20
366.5833853538
 10
339.0482987134
 20
366.5046531854
 10
338.9651297852
 20
366.4148283023
 10
338.9139146121
 20
366.3173626246
 10
338.8966213645
 20
366.2160017035
 10
338.9139146121
 20
366.1146407824
 10
338.9651297852
 20
366.0171751047
 10
339.0482987134
 20
365.9273502217
 10
339.1602252614
 20
365.8486180532
  0
LINE
  5
386
330
1F
100
AcDbEntity
  8
0
  6
Continuous
 62
     7
370
    25
100
AcDbLine
 10
339.3016466176
 20
366.665026165
 30
0.0
 11
339.1602252614
 21
366.5833853538
 31
0.0
  0
ARC
  5
387
330
1F
100
AcDbEntity
  8
0
  6
Continuous
 62
     7
370
    25
100
AcDbCircle
 10
339.9380427207
 20
365.4367861886
 30
0.0
 40
1.383319717121134
100
AcDbArc
 50
62.6096722366
 51
117.3903277634
  0
LINE
  5
388
330
1F
100
AcDbEntity
  8
0
  6
Continuous
 62
     7
370
    25
100
AcDbLine
 10
341.7765203518
 20
365.97107927
 30
0.0
 11
340.5744388238
 21
366.665026165
 31
0.0
  0
LWPOLYLINE
  5
389
330
1F
100
AcDbEntity
  8
0
  6
Continuous
 62
     7
370
    25
100
AcDbPolyline
 90
        9
 70
   128
 43
0.0
 10
341.7765203518
 20
365.2363119693
 10
341.8884468998
 20
365.3150441378
 10
341.971615828
 20
365.4048690209
 10
342.0228310011
 20
365.5023346986
 10
342.0401242487
 20
365.6036956197
 10
342.0228310011
 20
365.7050565407
 10
341.971615828
 20
365.8025222185
 10
341.8884468998
 20
365.8923471015
 10
341.7765203518
 20
365.97107927
  0
LINE
  5
38A
330
1F
100
AcDbEntity
  8
0
  6
Continuous
 62
     7
370
    25
100
AcDbLine
 10
341.6350989955
 20
365.1546711582
 30
0.0
 11
341.7765203518
 21
365.2363119693
 31
0.0
  0
ARC
  5
38B
330
1F
100
AcDbEntity
  8
0
  6
Continuous
 62
     7
370
    25
100
AcDbCircle
 10
407.7495830365
 20
404.9173740127
 30
0.0
 40
1.383319717120706
100
AcDbArc
 50
242.6096722366
 51
297.3903277634
  0
ARC
  5
38C
330
1F
100
AcDbEntity
  8
0
  6
Continuous
 62
     7
370
    25
100
AcDbCircle
 10
406.1609756804
 20
404.7504645816
 30
0.0
 40
0.3056307217841159
100
AcDbArc
 50
110.7834207995
 51
249.2165792005
  0
LINE
  5
38D
330
1F
100
AcDbEntity
  8
0
  6
Continuous
 62
     7
370
    25
100
AcDbLine
 10
406.0525267616
 20
404.4647217424
 30
0.0
 11
407.2546082897
 21
403.7707748474
 31
0.0
  0
ARC
  5
38E
330
1F
100
AcDbEntity
  8
0
  6
Continuous
 62
     7
370
    25
100
AcDbCircle
 10
407.7495830365
 20
404.7260726068
 30
0.0
 40
1.075915335538675
100
AcDbArc
 50
242.6096722366
 51
297.3903277634
  0
LINE
  5
38F
330
1F
100
AcDbEntity
  8
0
  6
Continuous
 62
     7
370
    25
100
AcDbLine
 10
408.2445577833
 20
403.7707748474
 30
0.0
 11
408.3859791396
 21
403.8524156586
 31
0.0
  0
ARC
  5
390
330
1F
100
AcDbEntity
  8
0
  6
Continuous
 62
     7
370
    25
100
AcDbCircle
 10
408.2775302208
 20
404.1381584977
 30
0.0
 40
0.3056307217840628
100
AcDbArc
 50
290.7834207995
 51
69.2165792005
  0
LINE
  5
391
330
1F
100
AcDbEntity
  8
0
  6
Continuous
 62
     7
370
    25
100
AcDbLine
 10
408.3859791396
 20
404.4239013368
 30
0.0
 11
407.1838976115
 21
405.1178482319
 31
0.0
  0
ARC
  5
392
330
1F
100
AcDbEntity
  8
0
  6
Continuous
 62
     7
370
    25
100
AcDbCircle
 10
406.6889228647
 20
404.1625504724
 30
0.0
 40
1.075915335537842
100
AcDbArc
 50
62.6096722366
 51
117.3903277634
  0
LINE
  5
393
330
1F
100
AcDbEntity
  8
0
  6
Continuous
 62
     7
370
    25
100
AcDbLine
 10
406.1939481179
 20
405.1178482319
 30
0.0
 11
406.0525267616
 21
405.0362074207
 31
0.0
  0
LINE
  5
394
330
1F
100
AcDbEntity
  8
0
  6
Continuous
 62
     7
370
    25
100
AcDbLine
 10
405.9111054054
 20
404.3830809312
 30
0.0
 11
407.1131869334
 21
403.6891340362
 31
0.0
  0
LWPOLYLINE
  5
395
330
1F
100
AcDbEntity
  8
0
  6
Continuous
 62
     7
370
    25
100
AcDbPolyline
 90
        9
 70
   128
 43
0.0
 10
405.9111054054
 20
405.1178482319
 10
405.7991788574
 20
405.0391160634
 10
405.7160099292
 20
404.9492911804
 10
405.6647947561
 20
404.8518255026
 10
405.6475015085
 20
404.7504645816
 10
405.6647947561
 20
404.6491036605
 10
405.7160099292
 20
404.5516379827
 10
405.7991788574
 20
404.4618130997
 10
405.9111054054
 20
404.3830809312
  0
LINE
  5
396
330
1F
100
AcDbEntity
  8
0
  6
Continuous
 62
     7
370
    25
100
AcDbLine
 10
406.0525267616
 20
405.1994890431
 30
0.0
 11
405.9111054054
 21
405.1178482319
 31
0.0
  0
ARC
  5
397
330
1F
100
AcDbEntity
  8
0
  6
Continuous
 62
     7
370
    25
100
AcDbCircle
 10
406.6889228647
 20
403.9712490666
 30
0.0
 40
1.383319717120579
100
AcDbArc
 50
62.6096722366
 51
117.3903277634
  0
LINE
  5
398
330
1F
100
AcDbEntity
  8
0
  6
Continuous
 62
     7
370
    25
100
AcDbLine
 10
408.5274004958
 20
404.505542148
 30
0.0
 11
407.3253189678
 21
405.1994890431
 31
0.0
  0
LWPOLYLINE
  5
399
330
1F
100
AcDbEntity
  8
0
  6
Continuous
 62
     7
370
    25
100
AcDbPolyline
 90
        9
 70
   128
 43
0.0
 10
408.5274004958
 20
403.7707748474
 10
408.6393270438
 20
403.8495070158
 10
408.722495972
 20
403.9393318989
 10
408.7737111451
 20
404.0367975766
 10
408.7910043927
 20
404.1381584977
 10
408.7737111451
 20
404.2395194188
 10
408.722495972
 20
404.3369850965
 10
408.6393270438
 20
404.4268099795
 10
408.5274004958
 20
404.505542148
  0
LINE
  5
39A
330
1F
100
AcDbEntity
  8
0
  6
Continuous
 62
     7
370
    25
100
AcDbLine
 10
408.3859791396
 20
403.6891340362
 30
0.0
 11
408.5274004958
 21
403.7707748474
 31
0.0
  0
ARC
  5
39B
330
1F
100
AcDbEntity
  8
0
  6
Continuous
 62
     7
370
    25
100
AcDbCircle
 10
318.7578117226
 20
352.4595250193
 30
0.0
 40
0.3056307217840755
100
AcDbArc
 50
290.7834207995
 51
69.2165792005
  0
LINE
  5
39C
330
1F
100
AcDbEntity
  8
0
  6
Continuous
 62
     7
370
    25
100
AcDbLine
 10
318.8662606413
 20
352.7452678585
 30
0.0
 11
317.6641791133
 21
353.4392147535
 31
0.0
  0
ARC
  5
39D
330
1F
100
AcDbEntity
  8
0
  6
Continuous
 62
     7
370
    25
100
AcDbCircle
 10
317.1692043665
 20
352.483916994
 30
0.0
 40
1.075915335538649
100
AcDbArc
 50
62.6096722366
 51
117.3903277634
  0
LINE
  5
39E
330
1F
100
AcDbEntity
  8
0
  6
Continuous
 62
     7
370
    25
100
AcDbLine
 10
316.6742296197
 20
353.4392147535
 30
0.0
 11
316.5328082634
 21
353.3575739423
 31
0.0
  0
ARC
  5
39F
330
1F
100
AcDbEntity
  8
0
  6
Continuous
 62
     7
370
    25
100
AcDbCircle
 10
316.6412571822
 20
353.0718311032
 30
0.0
 40
0.3056307217840224
100
AcDbArc
 50
110.7834207995
 51
249.2165792005
  0
LINE
  5
3A0
330
1F
100
AcDbEntity
  8
0
  6
Continuous
 62
     7
370
    25
100
AcDbLine
 10
316.5328082634
 20
352.786088264
 30
0.0
 11
317.7348897914
 21
352.092141369
 31
0.0
  0
ARC
  5
3A1
330
1F
100
AcDbEntity
  8
0
  6
Continuous
 62
     7
370
    25
100
AcDbCircle
 10
318.2298645383
 20
353.0474391285
 30
0.0
 40
1.075915335538322
100
AcDbArc
 50
242.6096722366
 51
297.3903277634
  0
LINE
  5
3A2
330
1F
100
AcDbEntity
  8
0
  6
Continuous
 62
     7
370
    25
100
AcDbLine
 10
318.7248392851
 20
352.092141369
 30
0.0
 11
318.8662606413
 21
352.1737821802
 31
0.0
  0
LINE
  5
3A3
330
1F
100
AcDbEntity
  8
0
  6
Continuous
 62
     7
370
    25
100
AcDbLine
 10
319.0076819976
 20
352.8269086696
 30
0.0
 11
317.8056004696
 21
353.5208555647
 31
0.0
  0
LWPOLYLINE
  5
3A4
330
1F
100
AcDbEntity
  8
0
  6
Continuous
 62
     7
370
    25
100
AcDbPolyline
 90
        9
 70
   128
 43
0.0
 10
319.0076819976
 20
352.092141369
 10
319.1196085456
 20
352.1708735375
 10
319.2027774738
 20
352.2606984205
 10
319.2539926469
 20
352.3581640982
 10
319.2712858945
 20
352.4595250193
 10
319.2539926469
 20
352.5608859404
 10
319.2027774738
 20
352.6583516181
 10
319.1196085456
 20
352.7481765012
 10
319.0076819976
 20
352.8269086696
  0
LINE
  5
3A5
330
1F
100
AcDbEntity
  8
0
  6
Continuous
 62
     7
370
    25
100
AcDbLine
 10
318.8662606413
 20
352.0105005578
 30
0.0
 11
319.0076819976
 21
352.092141369
 31
0.0
  0
ARC
  5
3A6
330
1F
100
AcDbEntity
  8
0
  6
Continuous
 62
     7
370
    25
100
AcDbCircle
 10
318.2298645383
 20
353.2387405343
 30
0.0
 40
1.383319717120605
100
AcDbArc
 50
242.6096722366
 51
297.3903277634
  0
LINE
  5
3A7
330
1F
100
AcDbEntity
  8
0
  6
Continuous
 62
     7
370
    25
100
AcDbLine
 10
316.3913869072
 20
352.7044474529
 30
0.0
 11
317.5934684352
 21
352.0105005578
 31
0.0
  0
LWPOLYLINE
  5
3A8
330
1F
100
AcDbEntity
  8
0
  6
Continuous
 62
     7
370
    25
100
AcDbPolyline
 90
        9
 70
   128
 43
0.0
 10
316.3913869072
 20
353.4392147535
 10
316.2794603592
 20
353.360482585
 10
316.196291431
 20
353.270657702
 10
316.1450762579
 20
353.1731920243
 10
316.1277830102
 20
353.0718311032
 10
316.1450762579
 20
352.9704701821
 10
316.196291431
 20
352.8730045044
 10
316.2794603592
 20
352.7831796213
 10
316.3913869072
 20
352.7044474529
  0
LINE
  5
3A9
330
1F
100
AcDbEntity
  8
0
  6
Continuous
 62
     7
370
    25
100
AcDbLine
 10
316.5328082634
 20
353.5208555647
 30
0.0
 11
316.3913869072
 21
353.4392147535
 31
0.0
  0
ARC
  5
3AA
330
1F
100
AcDbEntity
  8
0
  6
Continuous
 62
     7
370
    25
100
AcDbCircle
 10
317.1692043665
 20
352.2926155882
 30
0.0
 40
1.383319717120024
100
AcDbArc
 50
62.6096722366
 51
117.3903277634
  0
ARC
  5
3AB
330
1F
100
AcDbEntity
  8
0
  6
Continuous
 62
     7
370
    25
100
AcDbCircle
 10
385.5086918666
 20
390.9939878973
 30
0.0
 40
0.3056307217839491
100
AcDbArc
 50
290.7834207995
 51
69.2165792005
  0
LINE
  5
3AC
330
1F
100
AcDbEntity
  8
0
  6
Continuous
 62
     7
370
    25
100
AcDbLine
 10
385.6171407853
 20
391.2797307365
 30
0.0
 11
384.4150592573
 21
391.9736776315
 31
0.0
  0
ARC
  5
3AD
330
1F
100
AcDbEntity
  8
0
  6
Continuous
 62
     7
370
    25
100
AcDbCircle
 10
383.9200845105
 20
391.0183798721
 30
0.0
 40
1.075915335538044
100
AcDbArc
 50
62.6096722366
 51
117.3903277634
  0
LINE
  5
3AE
330
1F
100
AcDbEntity
  8
0
  6
Continuous
 62
     7
370
    25
100
AcDbLine
 10
383.4251097637
 20
391.9736776315
 30
0.0
 11
383.2836884074
 21
391.8920368204
 31
0.0
  0
ARC
  5
3AF
330
1F
100
AcDbEntity
  8
0
  6
Continuous
 62
     7
370
    25
100
AcDbCircle
 10
383.3921373262
 20
391.6062939812
 30
0.0
 40
0.3056307217840224
100
AcDbArc
 50
110.7834207995
 51
249.2165792005
  0
LINE
  5
3B0
330
1F
100
AcDbEntity
  8
0
  6
Continuous
 62
     7
370
    25
100
AcDbLine
 10
383.2836884074
 20
391.3205511421
 30
0.0
 11
384.4857699354
 21
390.626604247
 31
0.0
  0
ARC
  5
3B1
330
1F
100
AcDbEntity
  8
0
  6
Continuous
 62
     7
370
    25
100
AcDbCircle
 10
384.9807446823
 20
391.5819020065
 30
0.0
 40
1.075915335538421
100
AcDbArc
 50
242.6096722366
 51
297.3903277634
  0
LINE
  5
3B2
330
1F
100
AcDbEntity
  8
0
  6
Continuous
 62
     7
370
    25
100
AcDbLine
 10
385.4757194291
 20
390.626604247
 30
0.0
 11
385.6171407853
 21
390.7082450582
 31
0.0
  0
LINE
  5
3B3
330
1F
100
AcDbEntity
  8
0
  6
Continuous
 62
     7
370
    25
100
AcDbLine
 10
385.7585621416
 20
391.3613715477
 30
0.0
 11
384.5564806136
 21
392.0553184427
 31
0.0
  0
LWPOLYLINE
  5
3B4
330
1F
100
AcDbEntity
  8
0
  6
Continuous
 62
     7
370
    25
100
AcDbPolyline
 90
        9
 70
   128
 43
0.0
 10
385.7585621416
 20
390.626604247
 10
385.8704886896
 20
390.7053364155
 10
385.9536576178
 20
390.7951612985
 10
386.0048727909
 20
390.8926269763
 10
386.0221660385
 20
390.9939878973
 10
386.0048727909
 20
391.0953488184
 10
385.9536576178
 20
391.1928144962
 10
385.8704886896
 20
391.2826393792
 10
385.7585621416
 20
391.3613715477
  0
LINE
  5
3B5
330
1F
100
AcDbEntity
  8
0
  6
Continuous
 62
     7
370
    25
100
AcDbLine
 10
385.6171407853
 20
390.5449634358
 30
0.0
 11
385.7585621416
 21
390.626604247
 31
0.0
  0
ARC
  5
3B6
330
1F
100
AcDbEntity
  8
0
  6
Continuous
 62
     7
370
    25
100
AcDbCircle
 10
384.9807446823
 20
391.7732034123
 30
0.0
 40
1.383319717120275
100
AcDbArc
 50
242.6096722366
 51
297.3903277634
  0
LINE
  5
3B7
330
1F
100
AcDbEntity
  8
0
  6
Continuous
 62
     7
370
    25
100
AcDbLine
 10
383.1422670512
 20
391.2389103309
 30
0.0
 11
384.3443485792
 21
390.5449634358
 31
0.0
  0
LWPOLYLINE
  5
3B8
330
1F
100
AcDbEntity
  8
0
  6
Continuous
 62
     7
370
    25
100
AcDbPolyline
 90
        9
 70
   128
 43
0.0
 10
383.1422670512
 20
391.9736776315
 10
383.0303405032
 20
391.8949454631
 10
382.947171575
 20
391.80512058
 10
382.8959564019
 20
391.7076549023
 10
382.8786631543
 20
391.6062939812
 10
382.8959564019
 20
391.5049330601
 10
382.947171575
 20
391.4074673824
 10
383.0303405032
 20
391.3176424994
 10
383.1422670512
 20
391.2389103309
  0
LINE
  5
3B9
330
1F
100
AcDbEntity
  8
0
  6
Continuous
 62
     7
370
    25
100
AcDbLine
 10
383.2836884074
 20
392.0553184427
 30
0.0
 11
383.1422670512
 21
391.9736776315
 31
0.0
  0
ARC
  5
3BA
330
1F
100
AcDbEntity
  8
0
  6
Continuous
 62
     7
370
    25
100
AcDbCircle
 10
383.9200845105
 20
390.8270784663
 30
0.0
 40
1.383319717120605
100
AcDbArc
 50
62.6096722366
 51
117.3903277634
  0
LINE
  5
3BB
330
1F
100
AcDbEntity
  8
0
  6
Continuous
 62
     7
370
    25
100
AcDbLine
 10
332.7255535526
 20
335.314954671
 30
0.0
 11
287.4707195567
 21
361.4400142494
 31
0.0
  0
LWPOLYLINE
  5
3BC
330
1F
100
AcDbEntity
  8
0
  6
Continuous
 62
     7
370
    25
100
AcDbPolyline
 90
        9
 70
   128
 43
0.0
 10
319.0076819976
 20
352.8269086696
 10
319.1196085456
 20
352.7481765012
 10
319.2027774738
 20
352.6583516181
 10
319.2539926469
 20
352.5608859404
 10
319.2712858945
 20
352.4595250193
 10
319.2539926469
 20
352.3581640982
 10
319.2027774738
 20
352.2606984205
 10
319.1196085456
 20
352.1708735375
 10
319.0076819976
 20
352.092141369
  0
LWPOLYLINE
  5
3BD
330
1F
100
AcDbEntity
  8
0
  6
Continuous
 62
     7
370
    25
100
AcDbPolyline
 90
        9
 70
   128
 43
0.0
 10
316.3913869072
 20
352.7044474529
 10
316.2794603592
 20
352.7831796213
 10
316.196291431
 20
352.8730045044
 10
316.1450762579
 20
352.9704701821
 10
316.1277830102
 20
353.0718311032
 10
316.1450762579
 20
353.1731920243
 10
316.196291431
 20
353.270657702
 10
316.2794603592
 20
353.360482585
 10
316.3913869072
 20
353.4392147535
  0
LWPOLYLINE
  5
3BE
330
1F
100
AcDbEntity
  8
0
  6
Continuous
 62
     7
370
    25
100
AcDbPolyline
 90
        9
 70
   128
 43
0.0
 10
341.7765203518
 20
365.2363119693
 10
341.8884468998
 20
365.3150441378
 10
341.971615828
 20
365.4048690209
 10
342.0228310011
 20
365.5023346986
 10
342.0401242487
 20
365.6036956197
 10
342.0228310011
 20
365.7050565407
 10
341.971615828
 20
365.8025222185
 10
341.8884468998
 20
365.8923471015
 10
341.7765203518
 20
365.97107927
  0
LWPOLYLINE
  5
3BF
330
1F
100
AcDbEntity
  8
0
  6
Continuous
 62
     7
370
    25
100
AcDbPolyline
 90
        9
 70
   128
 43
0.0
 10
339.1602252614
 20
365.8486180532
 10
339.0482987134
 20
365.9273502217
 10
338.9651297852
 20
366.0171751047
 10
338.9139146121
 20
366.1146407824
 10
338.8966213645
 20
366.2160017035
 10
338.9139146121
 20
366.3173626246
 10
338.9651297852
 20
366.4148283023
 10
339.0482987134
 20
366.5046531854
 10
339.1602252614
 20
366.5833853538
  0
LINE
  5
3C0
330
1F
100
AcDbEntity
  8
0
  6
Continuous
 62
     7
370
    25
100
AcDbLine
 10
287.4707195567
 20
361.4400142494
 30
0.0
 11
325.4423537064
 21
383.3605720518
 31
0.0
  0
LINE
  5
3C1
330
1F
100
AcDbEntity
  8
0
  6
Continuous
 62
     7
370
    25
100
AcDbLine
 10
325.4423537064
 20
383.3605720518
 30
0.0
 11
370.6971877023
 21
357.2355124735
 31
0.0
  0
LINE
  5
3C2
330
1F
100
AcDbEntity
  8
0
  6
Continuous
 62
     7
370
    25
100
AcDbLine
 10
370.6971877023
 20
357.2355124735
 30
0.0
 11
332.7255535526
 21
335.314954671
 31
0.0
  0
LINE
  5
3C3
330
1F
100
AcDbEntity
  8
0
  6
Continuous
 62
     7
370
    25
100
AcDbLine
 10
399.4764336966
 20
373.8494175491
 30
0.0
 11
354.2215997007
 21
399.9744771274
 31
0.0
  0
LWPOLYLINE
  5
3C4
330
1F
100
AcDbEntity
  8
0
  6
Continuous
 62
     7
370
    25
100
AcDbPolyline
 90
        9
 70
   128
 43
0.0
 10
385.7585621416
 20
391.3613715477
 10
385.8704886896
 20
391.2826393792
 10
385.9536576178
 20
391.1928144962
 10
386.0048727909
 20
391.0953488184
 10
386.0221660385
 20
390.9939878973
 10
386.0048727909
 20
390.8926269763
 10
385.9536576178
 20
390.7951612985
 10
385.8704886896
 20
390.7053364155
 10
385.7585621416
 20
390.626604247
  0
LWPOLYLINE
  5
3C5
330
1F
100
AcDbEntity
  8
0
  6
Continuous
 62
     7
370
    25
100
AcDbPolyline
 90
        9
 70
   128
 43
0.0
 10
383.1422670512
 20
391.2389103309
 10
383.0303405032
 20
391.3176424994
 10
382.947171575
 20
391.4074673824
 10
382.8959564019
 20
391.5049330601
 10
382.8786631543
 20
391.6062939812
 10
382.8959564019
 20
391.7076549023
 10
382.947171575
 20
391.80512058
 10
383.0303405032
 20
391.8949454631
 10
383.1422670512
 20
391.9736776315
  0
LWPOLYLINE
  5
3C6
330
1F
100
AcDbEntity
  8
0
  6
Continuous
 62
     7
370
    25
100
AcDbPolyline
 90
        9
 70
   128
 43
0.0
 10
408.5274004958
 20
403.7707748474
 10
408.6393270438
 20
403.8495070158
 10
408.722495972
 20
403.9393318989
 10
408.7737111451
 20
404.0367975766
 10
408.7910043927
 20
404.1381584977
 10
408.7737111451
 20
404.2395194188
 10
408.722495972
 20
404.3369850965
 10
408.6393270438
 20
404.4268099795
 10
408.5274004958
 20
404.505542148
  0
LWPOLYLINE
  5
3C7
330
1F
100
AcDbEntity
  8
0
  6
Continuous
 62
     7
370
    25
100
AcDbPolyline
 90
        9
 70
   128
 43
0.0
 10
405.9111054054
 20
404.3830809312
 10
405.7991788574
 20
404.4618130997
 10
405.7160099292
 20
404.5516379828
 10
405.6647947561
 20
404.6491036605
 10
405.6475015085
 20
404.7504645816
 10
405.6647947561
 20
404.8518255026
 10
405.7160099292
 20
404.9492911804
 10
405.7991788574
 20
405.0391160634
 10
405.9111054054
 20
405.1178482319
  0
LINE
  5
3C8
330
1F
100
AcDbEntity
  8
0
  6
Continuous
 62
     7
370
    25
100
AcDbLine
 10
354.2215997007
 20
399.9744771274
 30
0.0
 11
392.1932338504
 21
421.8950349298
 31
0.0
  0
LINE
  5
3C9
330
1F
100
AcDbEntity
  8
0
  6
Continuous
 62
     7
370
    25
100
AcDbLine
 10
392.1932338504
 20
421.8950349298
 30
0.0
 11
437.4480678463
 21
395.7699753515
 31
0.0
  0
LINE
  5
3CA
330
1F
100
AcDbEntity
  8
0
  6
Continuous
 62
     7
370
    25
100
AcDbLine
 10
437.4480678463
 20
395.7699753515
 30
0.0
 11
399.4764336966
 21
373.8494175491
 31
0.0
  0
LINE
  5
3CB
330
1F
100
AcDbEntity
  8
0
  6
Continuous
 62
     7
370
    25
100
AcDbLine
 10
371.0911831083
 20
357.1363979352
 30
0.0
 11
371.121451771
 21
357.2355124735
 31
0.0
  0
LINE
  5
3CC
330
1F
100
AcDbEntity
  8
0
  6
Continuous
 62
     7
370
    25
100
AcDbLine
 10
332.7255535526
 20
334.9475710207
 30
0.0
 11
332.7255535526
 21
335.0700322375
 31
0.0
  0
LINE
  5
3CD
330
1F
100
AcDbEntity
  8
0
  6
Continuous
 62
     7
370
    25
100
AcDbLine
 10
371.121451771
 20
357.2355124735
 30
0.0
 11
332.7255535526
 21
335.0700322375
 31
0.0
  0
LINE
  5
3CE
330
1F
100
AcDbEntity
  8
0
  6
Continuous
 62
     7
370
    25
100
AcDbLine
 10
332.7255535526
 20
335.3187329944
 30
0.0
 11
287.4772645138
 21
361.4400142494
 31
0.0
  0
LINE
  5
3CF
330
1F
100
AcDbEntity
  8
0
  6
Continuous
 62
     7
370
    25
100
AcDbLine
 10
370.6906427452
 20
357.2355124735
 30
0.0
 11
332.7255535526
 21
335.3187329944
 31
0.0
  0
LINE
  5
3D0
330
1F
100
AcDbEntity
  8
0
  6
Continuous
 62
     7
370
    25
100
AcDbLine
 10
325.4423537064
 20
383.3567937285
 30
0.0
 11
370.6906427452
 21
357.2355124735
 31
0.0
  0
LINE
  5
3D1
330
1F
100
AcDbEntity
  8
0
  6
Continuous
 62
     7
370
    25
100
AcDbLine
 10
287.4772645138
 20
361.4400142494
 30
0.0
 11
325.4423537064
 21
383.3567937285
 31
0.0
  0
LINE
  5
3D2
330
1F
100
AcDbEntity
  8
0
  6
Continuous
 62
     7
370
    25
100
AcDbLine
 10
332.7255535526
 20
335.0700322375
 30
0.0
 11
287.0464554879
 21
361.4400142494
 31
0.0
  0
LINE
  5
3D3
330
1F
100
AcDbEntity
  8
0
  6
Continuous
 62
     7
370
    25
100
AcDbLine
 10
287.0464554879
 20
361.4400142494
 30
0.0
 11
325.4423537064
 21
383.6054944854
 31
0.0
  0
LINE
  5
3D4
330
1F
100
AcDbEntity
  8
0
  6
Continuous
 62
     7
370
    25
100
AcDbLine
 10
325.4423537064
 20
383.6054944854
 30
0.0
 11
371.121451771
 21
357.2355124735
 31
0.0
  0
LINE
  5
3D5
330
1F
100
AcDbEntity
  8
0
  6
Continuous
 62
     7
370
    25
100
AcDbLine
 10
287.0918584821
 20
361.291342442
 30
0.0
 11
287.0464554879
 21
361.4400142494
 31
0.0
  0
LINE
  5
3D6
330
1F
100
AcDbEntity
  8
0
  6
Continuous
 62
     7
370
    25
100
AcDbLine
 10
399.4764336966
 20
373.8531958724
 30
0.0
 11
354.2281446578
 21
399.9744771274
 31
0.0
  0
LINE
  5
3D7
330
1F
100
AcDbEntity
  8
0
  6
Continuous
 62
     7
370
    25
100
AcDbLine
 10
437.4415228892
 20
395.7699753515
 30
0.0
 11
399.4764336966
 21
373.8531958724
 31
0.0
  0
LINE
  5
3D8
330
1F
100
AcDbEntity
  8
0
  6
Continuous
 62
     7
370
    25
100
AcDbLine
 10
392.1932338504
 20
421.8912566065
 30
0.0
 11
437.4415228892
 21
395.7699753515
 31
0.0
  0
LINE
  5
3D9
330
1F
100
AcDbEntity
  8
0
  6
Continuous
 62
     7
370
    25
100
AcDbLine
 10
354.2281446578
 20
399.9744771274
 30
0.0
 11
392.1932338504
 21
421.8912566065
 31
0.0
  0
LINE
  5
3DA
330
1F
100
AcDbEntity
  8
0
  6
Continuous
 62
     7
370
    25
100
AcDbLine
 10
437.872331915
 20
395.7699753515
 30
0.0
 11
399.4764336966
 21
373.6044951155
 31
0.0
  0
LINE
  5
3DB
330
1F
100
AcDbEntity
  8
0
  6
Continuous
 62
     7
370
    25
100
AcDbLine
 10
399.4764336966
 20
373.6044951155
 30
0.0
 11
353.7973356319
 21
399.9744771274
 31
0.0
  0
LINE
  5
3DC
330
1F
100
AcDbEntity
  8
0
  6
Continuous
 62
     7
370
    25
100
AcDbLine
 10
353.7973356319
 20
399.9744771274
 30
0.0
 11
392.1932338504
 21
422.1399573634
 31
0.0
  0
LINE
  5
3DD
330
1F
100
AcDbEntity
  8
0
  6
Continuous
 62
     7
370
    25
100
AcDbLine
 10
392.1932338504
 20
422.1399573634
 30
0.0
 11
437.872331915
 21
395.7699753515
 31
0.0
  0
LINE
  5
3DE
330
1F
100
AcDbEntity
  8
0
  6
Continuous
 62
     7
370
    25
100
AcDbLine
 10
437.7981473167
 20
395.5270583694
 30
0.0
 11
437.872331915
 21
395.7699753515
 31
0.0
  0
LINE
  5
3DF
330
1F
100
AcDbEntity
  8
0
  6
Continuous
 62
     7
370
    25
100
AcDbLine
 10
399.4764336966
 20
373.5228543043
 30
0.0
 11
399.4764336966
 21
373.6044951155
 31
0.0
  0
LINE
  5
3E0
330
1F
100
AcDbEntity
  8
0
  6
Continuous
 62
     7
370
    25
100
AcDbLine
 10
353.8124699633
 20
399.9249198583
 30
0.0
 11
353.7973356319
 21
399.9744771274
 31
0.0
  0
LINE
  5
3E1
330
1F
100
AcDbEntity
  8
0
  6
Continuous
 62
     7
370
    25
100
AcDbLine
 10
333.3265943166
 20
335.0088016291
 30
0.0
 11
333.0437516041
 21
335.1720832515
 31
0.0
  0
LINE
  5
3E2
330
1F
100
AcDbEntity
  8
0
  6
Continuous
 62
     7
370
    25
100
AcDbLine
 10
333.3265943166
 20
334.9271608179
 30
0.0
 11
333.3265943166
 21
335.0088016291
 31
0.0
  0
LINE
  5
3E3
330
1F
100
AcDbEntity
  8
0
  6
Continuous
 62
     7
370
    25
100
AcDbLine
 10
333.0437516041
 20
334.7638791956
 30
0.0
 11
333.0437516041
 21
335.1720832515
 31
0.0
  0
LINE
  5
3E4
330
1F
100
AcDbEntity
  8
0
  6
Continuous
 62
     7
370
    25
100
AcDbLine
 10
437.6955552197
 20
395.5862835264
 30
0.0
 11
333.0437516041
 21
335.1720832515
 31
0.0
  0
LINE
  5
3E5
330
1F
100
AcDbEntity
  8
0
  6
Continuous
 62
     7
370
    25
100
AcDbLine
 10
437.9783979322
 20
395.423001904
 30
0.0
 11
437.6955552197
 21
395.5862835264
 31
0.0
  0
LINE
  5
3E6
330
1F
100
AcDbEntity
  8
0
  6
Continuous
 62
     7
370
    25
100
AcDbLine
 10
437.9783979322
 20
395.423001904
 30
0.0
 11
333.3265943166
 21
335.0088016291
 31
0.0
  0
LINE
  5
3E7
330
1F
100
AcDbEntity
  8
0
  6
Continuous
 62
     7
370
    25
100
AcDbLine
 10
437.9783979322
 20
395.3413610928
 30
0.0
 11
437.9783979322
 21
395.423001904
 31
0.0
  0
LINE
  5
3E8
330
1F
100
AcDbEntity
  8
0
  6
Continuous
 62
     7
370
    25
100
AcDbLine
 10
424.755501124
 20
381.7471840505
 30
0.0
 11
351.6406599493
 21
339.5388846693
 31
0.0
  0
LINE
  5
3E9
330
1F
100
AcDbEntity
  8
0
  6
Continuous
 62
     7
370
    25
100
AcDbLine
 10
392.2285891894
 20
422.2420083774
 30
0.0
 11
392.2285891894
 21
422.1195471606
 31
0.0
  0
LINE
  5
3EA
330
1F
100
AcDbEntity
  8
0
  6
Continuous
 62
     7
370
    25
100
AcDbLine
 10
445.5444404909
 20
391.4634225616
 30
0.0
 11
392.2285891894
 21
422.2420083774
 31
0.0
  0
LINE
  5
3EB
330
1F
100
AcDbEntity
  8
0
  6
Continuous
 62
     7
370
    25
100
AcDbLine
 10
445.5444404909
 20
374.5610675656
 30
0.0
 11
445.5444404909
 21
391.4634225616
 31
0.0
  0
LINE
  5
3EC
330
1F
100
AcDbEntity
  8
0
  6
Continuous
 62
     7
370
    25
100
AcDbLine
 10
445.5444404909
 20
391.4634225616
 30
0.0
 11
445.8272832034
 21
391.626704184
 31
0.0
  0
LINE
  5
3ED
330
1F
100
AcDbEntity
  8
0
  6
Continuous
 62
     7
370
    25
100
AcDbLine
 10
392.2285891894
 20
422.2420083774
 30
0.0
 11
392.5114319019
 21
422.4052899997
 31
0.0
  0
LINE
  5
3EE
330
1F
100
AcDbEntity
  8
0
  6
Continuous
 62
     7
370
    25
100
AcDbLine
 10
445.8272832034
 20
391.626704184
 30
0.0
 11
392.5114319019
 21
422.4052899997
 31
0.0
  0
LINE
  5
3EF
330
1F
100
AcDbEntity
  8
0
  6
Continuous
 62
     7
370
    25
100
AcDbLine
 10
445.8272832034
 20
374.3977859433
 30
0.0
 11
445.8272832034
 21
391.626704184
 31
0.0
  0
LINE
  5
3F0
330
1F
100
AcDbEntity
  8
0
  6
Continuous
 62
     7
370
    25
100
AcDbLine
 10
286.5868360802
 20
361.2563224242
 30
0.0
 11
286.5868360802
 21
355.7854989846
 31
0.0
  0
LINE
  5
3F1
330
1F
100
AcDbEntity
  8
0
  6
Continuous
 62
     7
370
    25
100
AcDbLine
 10
339.9026873816
 20
330.4777366085
 30
0.0
 11
286.5868360802
 21
361.2563224242
 31
0.0
  0
LINE
  5
3F2
330
1F
100
AcDbEntity
  8
0
  6
Continuous
 62
     7
370
    25
100
AcDbLine
 10
339.9026873816
 20
303.5318898163
 30
0.0
 11
339.9026873816
 21
330.4777366085
 31
0.0
  0
LINE
  5
3F3
330
1F
100
AcDbEntity
  8
0
  6
Continuous
 62
     7
370
    25
100
AcDbLine
 10
322.225017852
 20
313.736991214
 30
0.0
 11
339.9026873816
 21
303.5318898163
 31
0.0
  0
LINE
  5
3F4
330
1F
100
AcDbEntity
  8
0
  6
Continuous
 62
     7
370
    25
100
AcDbLine
 10
322.225017852
 20
334.9670523231
 30
0.0
 11
322.225017852
 21
313.736991214
 31
0.0
  0
LINE
  5
3F5
330
1F
100
AcDbEntity
  8
0
  6
Continuous
 62
     7
370
    25
100
AcDbLine
 10
322.225017852
 20
334.9670523231
 30
0.0
 11
322.3098706657
 21
334.9180678364
 31
0.0
  0
LINE
  5
3F6
330
1F
100
AcDbEntity
  8
0
  6
Continuous
 62
     7
370
    25
100
AcDbLine
 10
322.3098706657
 20
334.9180678364
 30
0.0
 11
322.3098706657
 21
335.2610149774
 31
0.0
  0
LWPOLYLINE
  5
3F7
330
1F
100
AcDbEntity
  8
0
  6
Continuous
 62
     7
370
    25
100
AcDbPolyline
 90
        9
 70
   128
 43
0.0
 10
322.3098706657
 20
335.2610149774
 10
322.3066411478
 20
335.2816279368
 10
322.2974442588
 20
335.3028314821
 10
322.2836801418
 20
335.3213975656
 10
322.2674442588
 20
335.3344996694
 10
322.2512083758
 20
335.3401431171
 10
322.2374442588
 20
335.3374687448
 10
322.2282473699
 20
335.3268837015
 10
322.225017852
 20
335.3099994641
  0
LINE
  5
3F8
330
1F
100
AcDbEntity
  8
0
  6
Continuous
 62
     7
370
    25
100
AcDbLine
 10
322.225017852
 20
335.3099994641
 30
0.0
 11
322.225017852
 21
335.2120145666
 31
0.0
  0
LINE
  5
3F9
330
1F
100
AcDbEntity
  8
0
  6
Continuous
 62
     7
370
    25
100
AcDbLine
 10
286.5868360802
 20
355.7854989846
 30
0.0
 11
293.3043505014
 21
351.9075604534
 31
0.0
  0
LINE
  5
3FA
330
1F
100
AcDbEntity
  8
0
  6
Continuous
 62
     7
370
    25
100
AcDbLine
 10
286.8696787926
 20
361.4196040466
 30
0.0
 11
286.5868360802
 21
361.2563224242
 31
0.0
  0
LINE
  5
3FB
330
1F
100
AcDbEntity
  8
0
  6
Continuous
 62
     7
370
    25
100
AcDbLine
 10
340.1855300941
 20
330.6410182309
 30
0.0
 11
286.8696787926
 21
361.4196040466
 31
0.0
  0
LINE
  5
3FC
330
1F
100
AcDbEntity
  8
0
  6
Continuous
 62
     7
370
    25
100
AcDbLine
 10
340.1855300941
 20
330.6410182309
 30
0.0
 11
339.9026873816
 21
330.4777366085
 31
0.0
  0
LINE
  5
3FD
330
1F
100
AcDbEntity
  8
0
  6
Continuous
 62
     7
370
    25
100
AcDbLine
 10
340.1855300941
 20
303.6951714386
 30
0.0
 11
340.1855300941
 21
330.6410182309
 31
0.0
  0
LINE
  5
3FE
330
1F
100
AcDbEntity
  8
0
  6
Continuous
 62
     7
370
    25
100
AcDbLine
 10
340.1855300941
 20
303.6951714386
 30
0.0
 11
339.9026873816
 21
303.5318898163
 31
0.0
  0
ARC
  5
3FF
330
1F
100
AcDbEntity
  8
0
  6
Continuous
 62
     7
370
    25
100
AcDbCircle
 10
322.6661105575
 20
335.1949818694
 30
0.0
 40
0.4414214399475875
100
AcDbArc
 50
177.7886348381
 51
206.9936604194
  0
ARC
  5
400
330
1F
100
AcDbEntity
  8
0
  6
Continuous
 62
     7
370
    25
100
AcDbCircle
 10
293.6473518334
 20
351.8696997374
 30
0.0
 40
0.3450845513088733
100
AcDbArc
 50
173.7011525118
 51
234.9866670948
  0
LINE
  5
401
330
1F
100
AcDbEntity
  8
0
  6
Continuous
 62
     7
370
    25
100
AcDbLine
 10
322.3098706657
 20
335.0160368098
 30
0.0
 11
322.225017852
 21
334.9670523231
 31
0.0
  0
LINE
  5
402
330
1F
100
AcDbEntity
  8
0
  6
Continuous
 62
     7
370
    25
100
AcDbLine
 10
293.3043505014
 20
351.6625982098
 30
0.0
 11
293.3521116528
 21
351.6901701356
 31
0.0
  0
LINE
  5
403
330
1F
100
AcDbEntity
  8
0
  6
Continuous
 62
     7
370
    25
100
AcDbLine
 10
286.7989681145
 20
355.4180755242
 30
0.0
 11
293.3043505014
 21
351.6625982098
 31
0.0
  0
LINE
  5
404
330
1F
100
AcDbEntity
  8
0
  6
Continuous
 62
     7
370
    25
100
AcDbLine
 10
293.3043505014
 20
351.3359818851
 30
0.0
 11
293.3043505014
 21
351.6625982098
 31
0.0
  0
LINE
  5
405
330
1F
100
AcDbEntity
  8
0
  6
Continuous
 62
     7
370
    25
100
AcDbLine
 10
293.3043505014
 20
351.3359818851
 30
0.0
 11
293.5943235572
 21
351.503379767
 31
0.0
  0
LINE
  5
406
330
1F
100
AcDbEntity
  8
0
  6
Continuous
 62
     7
370
    25
100
AcDbLine
 10
286.7989681145
 20
355.0914591995
 30
0.0
 11
293.3043505014
 21
351.3359818851
 31
0.0
  0
LINE
  5
407
330
1F
100
AcDbEntity
  8
0
  6
Continuous
 62
     7
370
    25
100
AcDbLine
 10
286.3039933677
 20
355.9487806069
 30
0.0
 11
286.3039933677
 21
361.4196040466
 31
0.0
  0
LINE
  5
408
330
1F
100
AcDbEntity
  8
0
  6
Continuous
 62
     7
370
    25
100
AcDbLine
 10
286.3039933677
 20
361.4196040466
 30
0.0
 11
286.5868360802
 21
361.2563224242
 31
0.0
  0
LINE
  5
409
330
1F
100
AcDbEntity
  8
0
  6
Continuous
 62
     7
370
    25
100
AcDbLine
 10
286.5868360802
 20
361.2563224242
 30
0.0
 11
392.5114319019
 21
422.4052899997
 31
0.0
  0
LINE
  5
40A
330
1F
100
AcDbEntity
  8
0
  6
Continuous
 62
     7
370
    25
100
AcDbLine
 10
286.3039933677
 20
361.4196040466
 30
0.0
 11
392.2285891894
 21
422.5685716221
 31
0.0
  0
LINE
  5
40B
330
1F
100
AcDbEntity
  8
0
  6
Continuous
 62
     7
370
    25
100
AcDbLine
 10
392.2285891894
 20
422.5685716221
 30
0.0
 11
392.5114319019
 21
422.4052899997
 31
0.0
  0
ARC
  5
40C
330
1F
100
AcDbEntity
  8
0
  6
Continuous
 62
     7
370
    25
100
AcDbCircle
 10
287.3786446387
 20
355.9976832035
 30
0.0
 40
1.075763365300552
100
AcDbArc
 50
182.6054784857
 51
237.39452166
  0
ARC
  5
40D
330
1F
100
AcDbEntity
  8
0
  6
Continuous
 62
     7
370
    25
100
AcDbCircle
 10
287.0474009106
 20
355.8064572402
 30
0.0
 40
0.4610414422714214
100
AcDbArc
 50
182.6054784856
 51
237.39452166
  0
LINE
  5
40E
330
1F
100
AcDbEntity
  8
0
  6
Continuous
 62
     7
370
    25
100
AcDbLine
 10
287.2939428614
 20
280.2554473451
 30
0.0
 11
372.1467566037
 21
231.2709606358
 31
0.0
  0
LINE
  5
40F
330
1F
100
AcDbEntity
  8
0
  6
Continuous
 62
     7
370
    25
100
AcDbLine
 10
287.2939428614
 20
354.8057163603
 30
0.0
 11
287.2939428614
 21
280.2554473451
 31
0.0
  0
LINE
  5
410
330
1F
100
AcDbEntity
  8
0
  6
Continuous
 62
     7
370
    25
100
AcDbLine
 10
372.1467566037
 20
290.0618990915
 30
0.0
 11
372.1467566037
 21
231.2709606358
 31
0.0
  0
LINE
  5
411
330
1F
100
AcDbEntity
  8
0
  6
Continuous
 62
     7
370
    25
100
AcDbLine
 10
372.1467566037
 20
231.2709606358
 30
0.0
 11
477.0814029318
 21
291.848442533
 31
0.0
  0
LINE
  5
412
330
1F
100
AcDbEntity
  8
0
  6
Continuous
 62
     7
370
    25
100
AcDbLine
 10
477.0814029318
 20
350.6393809888
 30
0.0
 11
372.1467566037
 21
290.0618990915
 31
0.0
  0
LINE
  5
413
330
1F
100
AcDbEntity
  8
0
  6
Continuous
 62
     7
370
    25
100
AcDbLine
 10
477.0814029318
 20
350.6393809888
 30
0.0
 11
477.0814029318
 21
291.848442533
 31
0.0
  0
LINE
  5
414
330
1F
100
AcDbEntity
  8
0
  6
Continuous
 62
     7
370
    25
100
AcDbLine
 10
422.2233095109
 20
375.3026374642
 30
0.0
 11
424.755501124
 21
373.8408343613
 31
0.0
  0
LINE
  5
415
330
1F
100
AcDbEntity
  8
0
  6
Continuous
 62
     7
370
    25
100
AcDbLine
 10
424.755501124
 20
376.7644405671
 30
0.0
 11
422.2233095109
 21
375.3026374642
 31
0.0
  0
LINE
  5
416
330
1F
100
AcDbEntity
  8
0
  6
Continuous
 62
     7
370
    25
100
AcDbLine
 10
457.5786485702
 20
346.3863273089
 30
0.0
 11
384.4646119341
 21
304.1784923779
 31
0.0
  0
LWPOLYLINE
  5
417
330
1F
100
AcDbEntity
  8
0
  6
Continuous
 62
     7
370
    25
100
AcDbPolyline
 90
       26
 70
   128
 43
0.0
 10
460.1815508615
 20
344.0672956886
 10
460.0627116422
 20
344.0140806449
 10
459.9246814564
 20
343.9795986753
 10
459.7761332482
 20
343.9660164089
 10
459.6264008479
 20
343.9741872693
 10
459.4848924929
 20
344.0035978515
 10
459.3604996736
 20
344.0524001802
 10
459.2610384482
 20
344.1175278258
 10
459.1927583314
 20
344.1948885788
 10
459.159949614
 20
344.2796215784
 10
459.1646737884
 20
344.3664027388
 10
459.2066340173
 20
344.4497792804
 10
459.2831937853
 20
344.5245123486
 10
459.3895425606
 20
344.5859061897
 10
459.5189980584
 20
344.630103203
 10
459.6634261137
 20
344.6543263276
 10
459.8137517807
 20
344.6570535354
 10
459.9605295449
 20
344.638113466
 10
460.0945368195
 20
344.5986961936
 10
460.2073534345
 20
344.5412784504
 10
460.2918907073
 20
344.4694680043
 10
460.3428368499
 20
344.3877769698
 10
460.356990729
 20
344.301338295
 10
460.3334630042
 20
344.2155832398
 10
460.273732009
 20
344.1359001096
 10
460.1815508615
 20
344.0672956886
  0
LINE
  5
418
330
1F
100
AcDbEntity
  8
0
  6
Continuous
 62
     7
370
    25
100
AcDbLine
 10
392.2285891894
 20
335.0585769468
 30
0.0
 11
392.2285891894
 21
362.9697974786
 31
0.0
  0
LINE
  5
419
330
1F
100
AcDbEntity
  8
0
  6
Continuous
 62
     7
370
    25
100
AcDbLine
 10
369.5112810441
 20
321.9441541029
 30
0.0
 11
362.9748222441
 21
346.0819572888
 31
0.0
  0
LINE
  5
41A
330
1F
100
AcDbEntity
  8
0
  6
Continuous
 62
     7
370
    25
100
AcDbLine
 10
392.2285891894
 20
335.0585769468
 30
0.0
 11
369.5112810441
 21
321.9441541029
 31
0.0
  0
LINE
  5
41B
330
1F
100
AcDbEntity
  8
0
  6
Continuous
 62
     7
370
    25
100
AcDbLine
 10
422.1329242207
 20
380.2332026302
 30
0.0
 11
422.2233095109
 21
375.3026374642
 31
0.0
  0
LINE
  5
41C
330
1F
100
AcDbEntity
  8
0
  6
Continuous
 62
     7
370
    25
100
AcDbLine
 10
411.4576367084
 20
351.9382665924
 30
0.0
 11
439.3267841254
 21
335.8497502423
 31
0.0
  0
LINE
  5
41D
330
1F
100
AcDbEntity
  8
0
  6
Continuous
 62
     7
370
    25
100
AcDbLine
 10
404.9049810419
 20
327.7406516968
 30
0.0
 11
411.4576367084
 21
351.9382665924
 31
0.0
  0
LINE
  5
41E
330
1F
100
AcDbEntity
  8
0
  6
Continuous
 62
     7
370
    25
100
AcDbLine
 10
404.9049810419
 20
327.7406516968
 30
0.0
 11
392.2285891894
 21
335.0585769468
 31
0.0
  0
LINE
  5
41F
330
1F
100
AcDbEntity
  8
0
  6
Continuous
 62
     7
370
    25
100
AcDbLine
 10
360.0430639261
 20
344.389489237
 30
0.0
 11
365.9242169293
 21
324.0149221388
 31
0.0
  0
LINE
  5
420
330
1F
100
AcDbEntity
  8
0
  6
Continuous
 62
     7
370
    25
100
AcDbLine
 10
365.9242169293
 20
324.0149221388
 30
0.0
 11
358.0137007723
 21
319.4482783651
 31
0.0
  0
LINE
  5
421
330
1F
100
AcDbEntity
  8
0
  6
Continuous
 62
     7
370
    25
100
AcDbLine
 10
408.4920451567
 20
329.8114197328
 30
0.0
 11
414.3903103803
 21
350.2452701181
 31
0.0
  0
LINE
  5
422
330
1F
100
AcDbEntity
  8
0
  6
Continuous
 62
     7
370
    25
100
AcDbLine
 10
418.6795003513
 20
323.9303270315
 30
0.0
 11
408.4920451567
 21
329.8114197328
 31
0.0
  0
LINE
  5
423
330
1F
100
AcDbEntity
  8
0
  6
Continuous
 62
     7
370
    25
100
AcDbLine
 10
369.5112810441
 20
321.9441541029
 30
0.0
 11
365.9242169293
 21
324.0149221388
 31
0.0
  0
LINE
  5
424
330
1F
100
AcDbEntity
  8
0
  6
Continuous
 62
     7
370
    25
100
AcDbLine
 10
408.4920451567
 20
329.8114197328
 30
0.0
 11
404.9049810419
 21
327.7406516968
 31
0.0
  0
LINE
  5
425
330
1F
100
AcDbEntity
  8
0
  6
PHANTOM
 62
     1
370
    18
100
AcDbLine
 10
435.5626405792
 20
357.124014688
 30
0.0
 11
435.9161939698
 21
357.328116716
 31
0.0
  0
LINE
  5
426
330
1F
100
AcDbEntity
  8
0
  6
PHANTOM
 62
     1
370
    18
100
AcDbLine
 10
435.5626405792
 20
355.7358953078
 30
0.0
 11
435.9161939698
 21
355.9399973358
 31
0.0
  0
LINE
  5
427
330
1F
100
AcDbEntity
  8
0
  6
PHANTOM
 62
     1
370
    18
100
AcDbLine
 10
435.5626405792
 20
350.1017637058
 30
0.0
 11
435.9161939698
 21
350.3058657337
 31
0.0
  0
LINE
  5
428
330
1F
100
AcDbEntity
  8
0
  6
PHANTOM
 62
     1
370
    18
100
AcDbLine
 10
435.5626405792
 20
348.7136443256
 30
0.0
 11
435.9161939698
 21
348.9177463535
 31
0.0
  0
LINE
  5
429
330
1F
100
AcDbEntity
  8
0
  6
PHANTOM
 62
     1
370
    18
100
AcDbLine
 10
370.3198732697
 20
319.4601668178
 30
0.0
 11
369.9663198791
 21
319.2560647898
 31
0.0
  0
LINE
  5
42A
330
1F
100
AcDbEntity
  8
0
  6
PHANTOM
 62
     1
370
    18
100
AcDbLine
 10
370.3198732697
 20
318.0720474376
 30
0.0
 11
369.9663198791
 21
317.8679454096
 31
0.0
  0
LINE
  5
42B
330
1F
100
AcDbEntity
  8
0
  6
PHANTOM
 62
     1
370
    18
100
AcDbLine
 10
368.163197587
 20
314.2955030551
 30
0.0
 11
371.698731493
 21
312.2544827755
 31
0.0
  0
LINE
  5
42C
330
1F
100
AcDbEntity
  8
0
  6
PHANTOM
 62
     1
370
    18
100
AcDbLine
 10
371.698731493
 20
311.8462123696
 30
0.0
 11
371.698731493
 21
312.2544827755
 31
0.0
  0
LINE
  5
42D
330
1F
100
AcDbEntity
  8
0
  6
PHANTOM
 62
     1
370
    18
100
AcDbLine
 10
372.1937062398
 20
311.9686470463
 30
0.0
 11
371.8401528492
 21
311.7645450184
 31
0.0
  0
LINE
  5
42E
330
1F
100
AcDbEntity
  8
0
  6
PHANTOM
 62
     1
370
    18
100
AcDbLine
 10
371.6987085062
 20
311.8461990996
 30
0.0
 11
371.8401528492
 21
311.7645450184
 31
0.0
  0
LINE
  5
42F
330
1F
100
AcDbEntity
  8
0
  6
PHANTOM
 62
     1
370
    18
100
AcDbLine
 10
438.4971337211
 20
350.2448010004
 30
0.0
 11
438.1435803305
 21
350.0406989725
 31
0.0
  0
LINE
  5
430
330
1F
100
AcDbEntity
  8
0
  6
PHANTOM
 62
     1
370
    18
100
AcDbLine
 10
438.6385550773
 20
350.8980203799
 30
0.0
 11
438.6385550773
 21
350.489749974
 31
0.0
  0
LINE
  5
431
330
1F
100
AcDbEntity
  8
0
  6
PHANTOM
 62
     1
370
    18
100
AcDbLine
 10
438.6385550773
 20
350.8980203799
 30
0.0
 11
437.4364735493
 21
351.591967275
 31
0.0
  0
LINE
  5
432
330
1F
100
AcDbEntity
  8
0
  6
PHANTOM
 62
     1
370
    18
100
AcDbLine
 10
438.1435803305
 20
350.0406989725
 30
0.0
 11
437.4364735493
 21
350.4489030284
 31
0.0
  0
LINE
  5
433
330
1F
100
AcDbEntity
  8
0
  6
PHANTOM
 62
     1
370
    18
100
AcDbLine
 10
434.9615998152
 20
351.8776172241
 30
0.0
 11
434.6080464246
 21
352.081719252
 31
0.0
  0
LINE
  5
434
330
1F
100
AcDbEntity
  8
0
  6
PHANTOM
 62
     1
370
    18
100
AcDbLine
 10
436.2343920213
 20
350.081280518
 30
0.0
 11
435.9161939698
 21
349.8975886928
 31
0.0
  0
LINE
  5
435
330
1F
100
AcDbEntity
  8
0
  6
PHANTOM
 62
     1
370
    18
100
AcDbLine
 10
436.2343920213
 20
349.1830856249
 30
0.0
 11
435.9161939698
 21
348.9993937997
 31
0.0
  0
LINE
  5
436
330
1F
100
AcDbEntity
  8
0
  6
PHANTOM
 62
     1
370
    18
100
AcDbLine
 10
448.9623140827
 20
343.9560301282
 30
0.0
 11
449.3158674732
 21
344.1601321562
 31
0.0
  0
LINE
  5
437
330
1F
100
AcDbEntity
  8
0
  6
PHANTOM
 62
     1
370
    18
100
AcDbLine
 10
448.9623140827
 20
343.0578352352
 30
0.0
 11
449.3158674732
 21
343.2619372631
 31
0.0
  0
LINE
  5
438
330
1F
100
AcDbEntity
  8
0
  6
PHANTOM
 62
     1
370
    18
100
AcDbLine
 10
357.3328695379
 20
374.9515685
 30
0.0
 11
357.3328695379
 21
374.3800828218
 31
0.0
  0
LINE
  5
439
330
1F
100
AcDbEntity
  8
0
  6
PHANTOM
 62
     1
370
    18
100
AcDbLine
 10
356.1307880099
 20
375.6455153951
 30
0.0
 11
356.1307880099
 21
374.3392624162
 31
0.0
  0
LINE
  5
43A
330
1F
100
AcDbEntity
  8
0
  6
PHANTOM
 62
     1
370
    18
100
AcDbLine
 10
354.99941716
 20
375.5638745839
 30
0.0
 11
354.99941716
 21
374.9923889056
 31
0.0
  0
LINE
  5
43B
330
1F
100
AcDbEntity
  8
0
  6
PHANTOM
 62
     1
370
    18
100
AcDbLine
 10
355.1408385162
 20
375.6455153951
 30
0.0
 11
355.1408385162
 21
374.9107480944
 31
0.0
  0
LINE
  5
43C
330
1F
100
AcDbEntity
  8
0
  6
PHANTOM
 62
     1
370
    18
100
AcDbLine
 10
369.919370243
 20
382.2176006953
 30
0.0
 11
369.919370243
 21
381.646115017
 31
0.0
  0
LINE
  5
43D
330
1F
100
AcDbEntity
  8
0
  6
PHANTOM
 62
     1
370
    18
100
AcDbLine
 10
368.717288715
 20
382.9115475903
 30
0.0
 11
368.717288715
 21
381.6052946114
 31
0.0
  0
LINE
  5
43E
330
1F
100
AcDbEntity
  8
0
  6
PHANTOM
 62
     1
370
    18
100
AcDbLine
 10
367.5859178651
 20
382.8299067791
 30
0.0
 11
367.5859178651
 21
382.2584211008
 31
0.0
  0
LINE
  5
43F
330
1F
100
AcDbEntity
  8
0
  6
PHANTOM
 62
     1
370
    18
100
AcDbLine
 10
367.7273392213
 20
382.9115475903
 30
0.0
 11
367.7273392213
 21
382.1767802897
 31
0.0
  0
LINE
  5
440
330
1F
100
AcDbEntity
  8
0
  6
PHANTOM
 62
     1
370
    18
100
AcDbLine
 10
341.6350989955
 20
365.8894384588
 30
0.0
 11
341.6350989955
 21
365.3179527805
 31
0.0
  0
LINE
  5
441
330
1F
100
AcDbEntity
  8
0
  6
PHANTOM
 62
     1
370
    18
100
AcDbLine
 10
340.4330174675
 20
366.5833853538
 30
0.0
 11
340.4330174675
 21
365.2771323749
 31
0.0
  0
LINE
  5
442
330
1F
100
AcDbEntity
  8
0
  6
PHANTOM
 62
     1
370
    18
100
AcDbLine
 10
339.3016466176
 20
366.5017445427
 30
0.0
 11
339.3016466176
 21
365.9302588644
 31
0.0
  0
LINE
  5
443
330
1F
100
AcDbEntity
  8
0
  6
PHANTOM
 62
     1
370
    18
100
AcDbLine
 10
339.4430679739
 20
366.5833853538
 30
0.0
 11
339.4430679739
 21
365.8486180532
 31
0.0
  0
LINE
  5
444
330
1F
100
AcDbEntity
  8
0
  6
PHANTOM
 62
     1
370
    18
100
AcDbLine
 10
408.3859791396
 20
404.4239013368
 30
0.0
 11
408.3859791396
 21
403.8524156586
 31
0.0
  0
LINE
  5
445
330
1F
100
AcDbEntity
  8
0
  6
PHANTOM
 62
     1
370
    18
100
AcDbLine
 10
407.1838976115
 20
405.1178482319
 30
0.0
 11
407.1838976115
 21
403.811595253
 31
0.0
  0
LINE
  5
446
330
1F
100
AcDbEntity
  8
0
  6
PHANTOM
 62
     1
370
    18
100
AcDbLine
 10
406.0525267616
 20
405.0362074207
 30
0.0
 11
406.0525267616
 21
404.4647217424
 31
0.0
  0
LINE
  5
447
330
1F
100
AcDbEntity
  8
0
  6
PHANTOM
 62
     1
370
    18
100
AcDbLine
 10
406.1939481179
 20
405.1178482319
 30
0.0
 11
406.1939481179
 21
404.3830809312
 31
0.0
  0
LINE
  5
448
330
1F
100
AcDbEntity
  8
0
  6
PHANTOM
 62
     1
370
    18
100
AcDbLine
 10
318.8662606413
 20
352.7452678585
 30
0.0
 11
318.8662606413
 21
352.1737821802
 31
0.0
  0
LINE
  5
449
330
1F
100
AcDbEntity
  8
0
  6
PHANTOM
 62
     1
370
    18
100
AcDbLine
 10
317.6641791133
 20
353.4392147535
 30
0.0
 11
317.6641791133
 21
352.1329617746
 31
0.0
  0
LINE
  5
44A
330
1F
100
AcDbEntity
  8
0
  6
PHANTOM
 62
     1
370
    18
100
AcDbLine
 10
316.5328082634
 20
353.3575739423
 30
0.0
 11
316.5328082634
 21
352.786088264
 31
0.0
  0
LINE
  5
44B
330
1F
100
AcDbEntity
  8
0
  6
PHANTOM
 62
     1
370
    18
100
AcDbLine
 10
316.6742296197
 20
353.4392147535
 30
0.0
 11
316.6742296197
 21
352.7044474529
 31
0.0
  0
LINE
  5
44C
330
1F
100
AcDbEntity
  8
0
  6
PHANTOM
 62
     1
370
    18
100
AcDbLine
 10
385.6171407853
 20
391.2797307365
 30
0.0
 11
385.6171407853
 21
390.7082450582
 31
0.0
  0
LINE
  5
44D
330
1F
100
AcDbEntity
  8
0
  6
PHANTOM
 62
     1
370
    18
100
AcDbLine
 10
384.4150592573
 20
391.9736776315
 30
0.0
 11
384.4150592573
 21
390.6674246526
 31
0.0
  0
LINE
  5
44E
330
1F
100
AcDbEntity
  8
0
  6
PHANTOM
 62
     1
370
    18
100
AcDbLine
 10
383.2836884074
 20
391.8920368204
 30
0.0
 11
383.2836884074
 21
391.3205511421
 31
0.0
  0
LINE
  5
44F
330
1F
100
AcDbEntity
  8
0
  6
PHANTOM
 62
     1
370
    18
100
AcDbLine
 10
383.4251097637
 20
391.9736776315
 30
0.0
 11
383.4251097637
 21
391.2389103309
 31
0.0
  0
LINE
  5
450
330
1F
100
AcDbEntity
  8
0
  6
PHANTOM
 62
     1
370
    18
100
AcDbLine
 10
293.3043505014
 20
351.9075604534
 30
0.0
 11
322.225017852
 21
335.2120145666
 31
0.0
  0
LINE
  5
451
330
1F
100
AcDbEntity
  8
0
  6
PHANTOM
 62
     1
370
    18
100
AcDbLine
 10
322.2674511543
 20
335.3344956881
 30
0.0
 11
322.225017852
 21
335.3099994641
 31
0.0
  0
LINE
  5
452
330
1F
100
AcDbEntity
  8
0
  6
PHANTOM
 62
     1
370
    18
100
AcDbLine
 10
322.3098706657
 20
335.2609990533
 30
0.0
 11
322.225017852
 21
335.2120145666
 31
0.0
  0
LINE
  5
453
330
1F
100
AcDbEntity
  8
0
  6
PHANTOM
 62
     1
370
    18
100
AcDbLine
 10
286.7989681145
 20
355.4180755242
 30
0.0
 11
287.0111346291
 21
355.540556646
 31
0.0
  0
LINE
  5
454
330
1F
100
AcDbEntity
  8
0
  6
PHANTOM
 62
     1
370
    18
100
AcDbLine
 10
286.7989681145
 20
355.4180755242
 30
0.0
 11
286.7989681145
 21
355.0914591995
 31
0.0
  0
LINE
  5
455
330
1F
100
AcDbEntity
  8
0
  6
PHANTOM
 62
     1
370
    18
100
AcDbLine
 10
286.5868360802
 20
355.7854989846
 30
0.0
 11
286.3039933677
 21
355.9487806069
 31
0.0
  0
ENDSEC
  0
SECTION
  2
OBJECTS
  0
DICTIONARY
  5
C
330
0
100
AcDbDictionary
281
     1
  3
ACAD_DETAILVIEWSTYLE
350
45D
  3
ACAD_GROUP
350
D
  3
ACAD_LAYOUT
350
1A
  3
ACAD_MATERIAL
350
43
  3
ACAD_MLEADERSTYLE
350
6B
  3
ACAD_MLINESTYLE
350
17
  3
ACAD_PLOTSETTINGS
350
19
  3
ACAD_PLOTSTYLENAME
350
E
  3
ACAD_SCALELIST
350
47
  3
ACAD_SECTIONVIEWSTYLE
350
45E
  3
ACAD_TABLESTYLE
350
69
  3
ACAD_VISUALSTYLE
350
2A
  3
ACDB_RECOMPOSE_DATA
350
45A
  3
AcDbVariableDictionary
350
456
  0
SUN
  5
6D
330
29
100
AcDbSun
 90
        1
290
     0
 63
     7
421
 16777215
 40
1.0
291
     1
 91
  2455826
 92
 54000000
292
     0
 70
     2
 71
   256
280
     1
  0
DICTIONARY
  5
45D
102
{ACAD_REACTORS
330
C
102
}
330
C
100
AcDbDictionary
281
     1
  0
DICTIONARY
  5
D
102
{ACAD_REACTORS
330
C
102
}
330
C
100
AcDbDictionary
281
     1
  0
DICTIONARY
  5
1A
102
{ACAD_REACTORS
330
C
102
}
330
C
100
AcDbDictionary
281
     1
  3
Layout1
350
1E
  3
Layout2
350
26
  3
Model
350
22
  0
DICTIONARY
  5
43
102
{ACAD_REACTORS
330
C
102
}
330
C
100
AcDbDictionary
281
     1
  3
ByBlock
350
45
  3
ByLayer
350
44
  3
Global
350
46
  0
DICTIONARY
  5
6B
102
{ACAD_REACTORS
330
C
102
}
330
C
100
AcDbDictionary
281
     1
  3
Standard
350
6C
  0
DICTIONARY
  5
17
102
{ACAD_REACTORS
330
C
102
}
330
C
100
AcDbDictionary
281
     1
  3
Standard
350
18
  0
DICTIONARY
  5
19
102
{ACAD_REACTORS
330
C
102
}
330
C
100
AcDbDictionary
281
     1
  0
ACDBDICTIONARYWDFLT
  5
E
102
{ACAD_REACTORS
330
C
102
}
330
C
100
AcDbDictionary
281
     1
  3
Normal
350
F
100
AcDbDictionaryWithDefault
340
F
  0
DICTIONARY
  5
47
102
{ACAD_REACTORS
330
C
102
}
330
C
100
AcDbDictionary
281
     1
  3
A0
350
48
  3
A1
350
49
  3
A2
350
4A
  3
A3
350
4B
  3
A4
350
4C
  3
A5
350
4D
  3
A6
350
4E
  3
A7
350
4F
  3
A8
350
50
  3
A9
350
51
  3
B0
350
52
  3
B1
350
53
  3
B2
350
54
  3
B3
350
55
  3
B4
350
56
  3
B5
350
57
  3
B6
350
58
  3
B7
350
59
  3
B8
350
5A
  3
B9
350
5B
  3
C0
350
5C
  3
C1
350
5D
  3
C2
350
5E
  3
C3
350
5F
  3
C4
350
60
  3
C5
350
61
  3
C6
350
62
  3
C7
350
63
  3
C8
350
64
  3
C9
350
65
  3
D0
350
66
  3
D1
350
67
  3
D2
350
68
  0
DICTIONARY
  5
45E
102
{ACAD_REACTORS
330
C
102
}
330
C
100
AcDbDictionary
281
     1
  0
DICTIONARY
  5
69
102
{ACAD_REACTORS
330
C
102
}
330
C
100
AcDbDictionary
281
     1
  3
Standard
350
6A
  0
DICTIONARY
  5
2A
102
{ACAD_REACTORS
330
C
102
}
330
C
100
AcDbDictionary
281
     1
  3
2dWireframe
350
2F
  3
Basic
350
32
  3
Brighten
350
36
  3
ColorChange
350
3A
  3
Conceptual
350
34
  3
Dim
350
35
  3
EdgeColorOff
350
3D
  3
Facepattern
350
39
  3
Flat
350
2B
  3
FlatWithEdges
350
2C
  3
Gouraud
350
2D
  3
GouraudWithEdges
350
2E
  3
Hidden
350
31
  3
JitterOff
350
3B
  3
Linepattern
350
38
  3
OverhangOff
350
3C
  3
Realistic
350
33
  3
Shaded
350
42
  3
Shaded with edges
350
41
  3
Shades of Gray
350
3E
  3
Sketchy
350
3F
  3
Thicken
350
37
  3
Wireframe
350
30
  3
X-Ray
350
40
  0
XRECORD
  5
45A
102
{ACAD_REACTORS
330
C
102
}
330
C
100
AcDbXrecord
280
     1
 90
        1
330
6A
  0
DICTIONARY
  5
456
102
{ACAD_REACTORS
330
C
102
}
330
C
100
AcDbDictionary
281
     1
  3
CANNOSCALE
350
457
  3
CMLEADERSTYLE
350
45C
  3
CTABLESTYLE
350
45B
  3
SECTIONTHICKNESSINC
350
45F
  0
LAYOUT
  5
1E
102
{ACAD_REACTORS
330
1A
102
}
330
1A
100
AcDbPlotSettings
  1

  2
none_device
  4

  6

 40
0.0
 41
0.0
 42
0.0
 43
0.0
 44
0.0
 45
0.0
 46
0.0
 47
0.0
 48
0.0
 49
0.0
140
0.0
141
0.0
142
1.0
143
1.0
 70
   688
 72
     1
 73
     0
 74
     5
  7

 75
    16
 76
     0
 77
     2
 78
   300
147
1.0
148
0.0
149
0.0
100
AcDbLayout
  1
Layout1
 70
     1
 71
     1
 10
0.0
 20
0.0
 11
420.0
 21
297.0
 12
0.0
 22
0.0
 32
0.0
 14
1.0000000000E+20
 24
1.0000000000E+20
 34
1.0000000000E+20
 15
-1.0000000000E+20
 25
-1.0000000000E+20
 35
-1.0000000000E+20
146
0.0
 13
0.0
 23
0.0
 33
0.0
 16
1.0
 26
0.0
 36
0.0
 17
0.0
 27
1.0
 37
0.0
 76
     0
330
1B
  0
LAYOUT
  5
26
102
{ACAD_REACTORS
330
1A
102
}
330
1A
100
AcDbPlotSettings
  1

  2
none_device
  4

  6

 40
0.0
 41
0.0
 42
0.0
 43
0.0
 44
0.0
 45
0.0
 46
0.0
 47
0.0
 48
0.0
 49
0.0
140
0.0
141
0.0
142
1.0
143
1.0
 70
   688
 72
     1
 73
     0
 74
     5
  7

 75
    16
 76
     0
 77
     2
 78
   300
147
1.0
148
0.0
149
0.0
100
AcDbLayout
  1
Layout2
 70
     1
 71
     2
 10
0.0
 20
0.0
 11
0.0
 21
0.0
 12
0.0
 22
0.0
 32
0.0
 14
0.0
 24
0.0
 34
0.0
 15
0.0
 25
0.0
 35
0.0
146
0.0
 13
0.0
 23
0.0
 33
0.0
 16
1.0
 26
0.0
 36
0.0
 17
0.0
 27
1.0
 37
0.0
 76
     0
330
23
  0
LAYOUT
  5
22
102
{ACAD_REACTORS
330
1A
102
}
330
1A
100
AcDbPlotSettings
  1

  2
none_device
  4
Letter_(8.50_x_11.00_Inches)
  6

 40
6.35
 41
6.35
 42
6.35000508
 43
6.35000508
 44
215.9
 45
279.4
 46
0.0
 47
0.0
 48
0.0
 49
0.0
140
0.0
141
0.0
142
1.0
143
1.0
 70
  1712
 72
     1
 73
     0
 74
     0
  7

 75
     0
 76
     0
 77
     2
 78
   300
147
1.0
148
0.0
149
0.0
100
AcDbLayout
  1
Model
 70
     1
 71
     0
 10
0.0
 20
0.0
 11
594.0
 21
420.0
 12
0.0
 22
0.0
 32
0.0
 14
0.0
 24
0.0
 34
0.0
 15
594.0
 25
420.0
 35
0.0
146
0.0
 13
0.0
 23
0.0
 33
0.0
 16
1.0
 26
0.0
 36
0.0
 17
0.0
 27
1.0
 37
0.0
 76
     0
330
1F
331
29
  0
MATERIAL
  5
45
102
{ACAD_REACTORS
330
43
102
}
330
43
100
AcDbMaterial
  1
ByBlock
 72
     1
 94
      127
  0
MATERIAL
  5
44
102
{ACAD_REACTORS
330
43
102
}
330
43
100
AcDbMaterial
  1
ByLayer
 72
     1
 94
      127
  0
MATERIAL
  5
46
102
{ACAD_REACTORS
330
43
102
}
330
43
100
AcDbMaterial
  1
Global
 72
     1
 94
      127
  0
MLEADERSTYLE
  5
6C
102
{ACAD_REACTORS
330
6B
102
}
330
6B
100
AcDbMLeaderStyle
179
     2
170
     2
171
     1
172
     0
 90
        2
 40
0.0
 41
0.0
173
     1
 91
-1056964608
340
14
 92
       -2
290
     1
 42
2.0
291
     1
 43
8.0
  3
Standard
341
0
 44
4.0
300

342
11
174
     1
178
     6
175
     1
176
     0
 93
-1056964608
 45
4.0
292
     0
297
     0
 46
4.0
343
0
 94
-1056964608
 47
1.0
 49
1.0
140
1.0
293
     1
141
0.0
294
     1
177
     0
142
1.0
295
     0
296
     0
143
3.75
271
     0
272
     9
273
     9
298
     0
  0
MLINESTYLE
  5
18
102
{ACAD_REACTORS
330
17
102
}
330
17
100
AcDbMlineStyle
  2
Standard
 70
     0
  3

 62
   256
 51
90.0
 52
90.0
 71
     2
 49
0.5
 62
   256
  6
BYLAYER
 49
-0.5
 62
   256
  6
BYLAYER
  0
ACDBPLACEHOLDER
  5
F
102
{ACAD_REACTORS
330
E
102
}
330
E
  0
SCALE
  5
48
102
{ACAD_REACTORS
330
47
102
}
330
47
100
AcDbScale
 70
     0
300
1:1
140
1.0
141
1.0
290
     1
  0
SCALE
  5
49
102
{ACAD_REACTORS
330
47
102
}
330
47
100
AcDbScale
 70
     0
300
1:2
140
1.0
141
2.0
290
     0
  0
SCALE
  5
4A
102
{ACAD_REACTORS
330
47
102
}
330
47
100
AcDbScale
 70
     0
300
1:4
140
1.0
141
4.0
290
     0
  0
SCALE
  5
4B
102
{ACAD_REACTORS
330
47
102
}
330
47
100
AcDbScale
 70
     0
300
1:5
140
1.0
141
5.0
290
     0
  0
SCALE
  5
4C
102
{ACAD_REACTORS
330
47
102
}
330
47
100
AcDbScale
 70
     0
300
1:8
140
1.0
141
8.0
290
     0
  0
SCALE
  5
4D
102
{ACAD_REACTORS
330
47
102
}
330
47
100
AcDbScale
 70
     0
300
1:10
140
1.0
141
10.0
290
     0
  0
SCALE
  5
4E
102
{ACAD_REACTORS
330
47
102
}
330
47
100
AcDbScale
 70
     0
300
1:16
140
1.0
141
16.0
290
     0
  0
SCALE
  5
4F
102
{ACAD_REACTORS
330
47
102
}
330
47
100
AcDbScale
 70
     0
300
1:20
140
1.0
141
20.0
290
     0
  0
SCALE
  5
50
102
{ACAD_REACTORS
330
47
102
}
330
47
100
AcDbScale
 70
     0
300
1:30
140
1.0
141
30.0
290
     0
  0
SCALE
  5
51
102
{ACAD_REACTORS
330
47
102
}
330
47
100
AcDbScale
 70
     0
300
1:40
140
1.0
141
40.0
290
     0
  0
SCALE
  5
52
102
{ACAD_REACTORS
330
47
102
}
330
47
100
AcDbScale
 70
     0
300
1:50
140
1.0
141
50.0
290
     0
  0
SCALE
  5
53
102
{ACAD_REACTORS
330
47
102
}
330
47
100
AcDbScale
 70
     0
300
1:100
140
1.0
141
100.0
290
     0
  0
SCALE
  5
54
102
{ACAD_REACTORS
330
47
102
}
330
47
100
AcDbScale
 70
     0
300
2:1
140
2.0
141
1.0
290
     0
  0
SCALE
  5
55
102
{ACAD_REACTORS
330
47
102
}
330
47
100
AcDbScale
 70
     0
300
4:1
140
4.0
141
1.0
290
     0
  0
SCALE
  5
56
102
{ACAD_REACTORS
330
47
102
}
330
47
100
AcDbScale
 70
     0
300
8:1
140
8.0
141
1.0
290
     0
  0
SCALE
  5
57
102
{ACAD_REACTORS
330
47
102
}
330
47
100
AcDbScale
 70
     0
300
10:1
140
10.0
141
1.0
290
     0
  0
SCALE
  5
58
102
{ACAD_REACTORS
330
47
102
}
330
47
100
AcDbScale
 70
     0
300
100:1
140
100.0
141
1.0
290
     0
  0
SCALE
  5
59
102
{ACAD_REACTORS
330
47
102
}
330
47
100
AcDbScale
 70
     0
300
1/128" = 1'-0"
140
0.0078125
141
12.0
290
     0
  0
SCALE
  5
5A
102
{ACAD_REACTORS
330
47
102
}
330
47
100
AcDbScale
 70
     0
300
1/64" = 1'-0"
140
0.015625
141
12.0
290
     0
  0
SCALE
  5
5B
102
{ACAD_REACTORS
330
47
102
}
330
47
100
AcDbScale
 70
     0
300
1/32" = 1'-0"
140
0.03125
141
12.0
290
     0
  0
SCALE
  5
5C
102
{ACAD_REACTORS
330
47
102
}
330
47
100
AcDbScale
 70
     0
300
1/16" = 1'-0"
140
0.0625
141
12.0
290
     0
  0
SCALE
  5
5D
102
{ACAD_REACTORS
330
47
102
}
330
47
100
AcDbScale
 70
     0
300
3/32" = 1'-0"
140
0.09375
141
12.0
290
     0
  0
SCALE
  5
5E
102
{ACAD_REACTORS
330
47
102
}
330
47
100
AcDbScale
 70
     0
300
1/8" = 1'-0"
140
0.125
141
12.0
290
     0
  0
SCALE
  5
5F
102
{ACAD_REACTORS
330
47
102
}
330
47
100
AcDbScale
 70
     0
300
3/16" = 1'-0"
140
0.1875
141
12.0
290
     0
  0
SCALE
  5
60
102
{ACAD_REACTORS
330
47
102
}
330
47
100
AcDbScale
 70
     0
300
1/4" = 1'-0"
140
0.25
141
12.0
290
     0
  0
SCALE
  5
61
102
{ACAD_REACTORS
330
47
102
}
330
47
100
AcDbScale
 70
     0
300
3/8" = 1'-0"
140
0.375
141
12.0
290
     0
  0
SCALE
  5
62
102
{ACAD_REACTORS
330
47
102
}
330
47
100
AcDbScale
 70
     0
300
1/2" = 1'-0"
140
0.5
141
12.0
290
     0
  0
SCALE
  5
63
102
{ACAD_REACTORS
330
47
102
}
330
47
100
AcDbScale
 70
     0
300
3/4" = 1'-0"
140
0.75
141
12.0
290
     0
  0
SCALE
  5
64
102
{ACAD_REACTORS
330
47
102
}
330
47
100
AcDbScale
 70
     0
300
1" = 1'-0"
140
1.0
141
12.0
290
     0
  0
SCALE
  5
65
102
{ACAD_REACTORS
330
47
102
}
330
47
100
AcDbScale
 70
     0
300
1-1/2" = 1'-0"
140
1.5
141
12.0
290
     0
  0
SCALE
  5
66
102
{ACAD_REACTORS
330
47
102
}
330
47
100
AcDbScale
 70
     0
300
3" = 1'-0"
140
3.0
141
12.0
290
     0
  0
SCALE
  5
67
102
{ACAD_REACTORS
330
47
102
}
330
47
100
AcDbScale
 70
     0
300
6" = 1'-0"
140
6.0
141
12.0
290
     0
  0
SCALE
  5
68
102
{ACAD_REACTORS
330
47
102
}
330
47
100
AcDbScale
 70
     0
300
1'-0" = 1'-0"
140
12.0
141
12.0
290
     0
  0
TABLESTYLE
  5
6A
102
{ACAD_REACTORS
330
69
102
}
102
{ACAD_XDICTIONARY
360
458
102
}
330
69
100
AcDbTableStyle
  3
Standard
 70
     0
 71
     0
 40
0.06
 41
0.06
280
     0
281
     0
  7
Standard
140
4.5
170
     2
 62
     0
 63
   257
283
     0
 90
        4
 91
        0
  1

274
    -2
284
     1
 64
     0
275
    -2
285
     1
 65
     0
276
    -2
286
     1
 66
     0
277
    -2
287
     1
 67
     0
278
    -2
288
     1
 68
     0
279
    -2
289
     1
 69
     0
  7
Standard
140
6.0
170
     5
 62
     0
 63
   257
283
     0
 90
        4
 91
        0
  1

274
    -2
284
     1
 64
     0
275
    -2
285
     1
 65
     0
276
    -2
286
     1
 66
     0
277
    -2
287
     1
 67
     0
278
    -2
288
     1
 68
     0
279
    -2
289
     1
 69
     0
  7
Standard
140
4.5
170
     5
 62
     0
 63
   257
283
     0
 90
        4
 91
        0
  1

274
    -2
284
     1
 64
     0
275
    -2
285
     1
 65
     0
276
    -2
286
     1
 66
     0
277
    -2
287
     1
 67
     0
278
    -2
288
     1
 68
     0
279
    -2
289
     1
 69
     0
  0
VISUALSTYLE
  5
2F
102
{ACAD_REACTORS
330
2A
102
}
330
2A
100
AcDbVisualStyle
  2
2dWireframe
 70
     4
177
     3
291
     0
 70
    58
 90
        0
176
     1
 90
        2
176
     1
 90
        0
176
     1
 90
        0
176
     1
 40
0.6
176
     1
 40
30.0
176
     1
 62
     7
420
 16777215
176
     1
 90
        1
176
     1
 90
        4
176
     1
 62
     7
176
     1
 62
   257
176
     1
 90
        1
176
     1
 90
        1
176
     1
 40
1.0
176
     1
 90
        0
176
     1
 62
   257
176
     1
 40
1.0
176
     1
 90
        1
176
     1
 90
        6
176
     1
 90
        2
176
     1
 62
     7
176
     1
 90
        5
176
     1
 90
        0
176
     1
 90
        0
176
     1
290
     0
176
     1
 90
        1
176
     1
 40
0.0
176
     1
 90
        0
176
     1
290
     1
176
     1
290
     1
176
     1
290
     0
176
     1
290
     0
176
     1
290
     0
176
     1
290
     0
176
     1
290
     0
176
     1
290
     0
176
     1
290
     0
176
     1
 90
       50
176
     1
 40
0.0
176
     1
 40
1.0
176
     1
 90
        0
176
     1
 62
    18
420
        0
176
     1
 90
       50
176
     1
 90
        3
176
     1
 62
     5
420
      255
176
     1
290
     0
176
     1
 90
       50
176
     1
 90
       50
176
     1
 90
       50
176
     1
290
     0
176
     1
 90
       50
176
     1
 62
   256
176
     0
 40
1.0
176
     0
 90
        2
176
     1
  1
strokes_ogs.tif
176
     1
290
     0
176
     1
 40
1.0
176
     1
 40
1.0
176
     1
  0
VISUALSTYLE
  5
32
102
{ACAD_REACTORS
330
2A
102
}
330
2A
100
AcDbVisualStyle
  2
Basic
 70
     7
177
     3
291
     1
 70
    58
 90
        1
176
     1
 90
        0
176
     1
 90
        1
176
     1
 90
        0
176
     1
 40
0.6
176
     1
 40
30.0
176
     1
 62
     7
420
 16777215
176
     1
 90
        0
176
     1
 90
        4
176
     1
 62
     7
176
     1
 62
   257
176
     1
 90
        1
176
     1
 90
        1
176
     1
 40
1.0
176
     1
 90
        8
176
     1
 62
     7
176
     1
 40
1.0
176
     1
 90
        1
176
     1
 90
        6
176
     1
 90
        2
176
     1
 62
     7
176
     1
 90
        5
176
     1
 90
        0
176
     1
 90
        0
176
     1
290
     0
176
     1
 90
        1
176
     1
 40
0.0
176
     1
 90
        0
176
     1
290
     0
176
     1
290
     1
176
     1
290
     1
176
     1
290
     0
176
     1
290
     0
176
     1
290
     0
176
     1
290
     0
176
     1
290
     0
176
     1
290
     0
176
     1
 90
       50
176
     1
 40
0.0
176
     1
 40
1.0
176
     1
 90
        0
176
     1
 62
    18
420
        0
176
     1
 90
       50
176
     1
 90
        3
176
     1
 62
     5
420
      255
176
     1
290
     0
176
     1
 90
       50
176
     1
 90
       50
176
     1
 90
       50
176
     1
290
     0
176
     1
 90
       50
176
     1
 62
   256
176
     0
 40
1.0
176
     0
 90
        2
176
     1
  1
strokes_ogs.tif
176
     1
290
     0
176
     1
 40
1.0
176
     1
 40
1.0
176
     1
  0
VISUALSTYLE
  5
36
102
{ACAD_REACTORS
330
2A
102
}
330
2A
100
AcDbVisualStyle
  2
Brighten
 70
    12
177
     3
291
     1
 70
    58
 90
        2
176
     1
 90
        2
176
     1
 90
        0
176
     1
 90
        0
176
     1
 40
0.6
176
     1
 40
30.0
176
     1
 62
     7
420
 16777215
176
     1
 90
        1
176
     1
 90
        4
176
     1
 62
     7
176
     1
 62
   257
176
     1
 90
        1
176
     1
 90
        1
176
     1
 40
1.0
176
     1
 90
        8
176
     1
 62
     7
176
     1
 40
1.0
176
     1
 90
        1
176
     1
 90
        6
176
     1
 90
        2
176
     1
 62
     7
176
     1
 90
        5
176
     1
 90
        0
176
     1
 90
        0
176
     1
290
     0
176
     1
 90
        1
176
     1
 40
50.0
176
     1
 90
        0
176
     1
290
     0
176
     1
290
     1
176
     1
290
     1
176
     1
290
     0
176
     1
290
     0
176
     1
290
     0
176
     1
290
     0
176
     1
290
     0
176
     1
290
     0
176
     1
 90
       50
176
     1
 40
0.0
176
     1
 40
1.0
176
     1
 90
        0
176
     1
 62
    18
420
        0
176
     1
 90
       50
176
     1
 90
        3
176
     1
 62
     5
420
      255
176
     1
290
     0
176
     1
 90
       50
176
     1
 90
       50
176
     1
 90
       50
176
     1
290
     0
176
     1
 90
       50
176
     1
 62
   256
176
     0
 40
1.0
176
     0
 90
        2
176
     1
  1
strokes_ogs.tif
176
     1
290
     0
176
     1
 40
1.0
176
     1
 40
1.0
176
     1
  0
VISUALSTYLE
  5
3A
102
{ACAD_REACTORS
330
2A
102
}
330
2A
100
AcDbVisualStyle
  2
ColorChange
 70
    16
177
     3
291
     1
 70
    58
 90
        2
176
     1
 90
        2
176
     1
 90
        3
176
     1
 90
        0
176
     1
 40
0.6
176
     1
 40
30.0
176
     1
 62
     8
420
  8421504
176
     1
 90
        1
176
     1
 90
        4
176
     1
 62
     7
176
     1
 62
   257
176
     1
 90
        1
176
     1
 90
        1
176
     1
 40
1.0
176
     1
 90
        8
176
     1
 62
     8
420
  8421504
176
     1
 40
1.0
176
     1
 90
        1
176
     1
 90
        6
176
     1
 90
        2
176
     1
 62
     7
176
     1
 90
        5
176
     1
 90
        0
176
     1
 90
        0
176
     1
290
     0
176
     1
 90
        1
176
     1
 40
0.0
176
     1
 90
        0
176
     1
290
     0
176
     1
290
     1
176
     1
290
     1
176
     1
290
     0
176
     1
290
     0
176
     1
290
     0
176
     1
290
     0
176
     1
290
     0
176
     1
290
     0
176
     1
 90
       50
176
     1
 40
0.0
176
     1
 40
1.0
176
     1
 90
        0
176
     1
 62
    18
420
        0
176
     1
 90
       50
176
     1
 90
        3
176
     1
 62
     5
420
      255
176
     1
290
     0
176
     1
 90
       50
176
     1
 90
       50
176
     1
 90
       50
176
     1
290
     0
176
     1
 90
       50
176
     1
 62
   256
176
     0
 40
1.0
176
     0
 90
        2
176
     1
  1
strokes_ogs.tif
176
     1
290
     0
176
     1
 40
1.0
176
     1
 40
1.0
176
     1
  0
VISUALSTYLE
  5
34
102
{ACAD_REACTORS
330
2A
102
}
330
2A
100
AcDbVisualStyle
  2
Conceptual
 70
     9
177
     3
291
     0
 70
    58
 90
        3
176
     1
 90
        2
176
     1
 90
        0
176
     1
 90
        0
176
     1
 40
0.6
176
     1
 40
30.0
176
     1
 62
     7
420
 16777215
176
     1
 90
        2
176
     1
 90
        2
176
     1
 62
     7
176
     1
 62
   257
176
     1
 90
        1
176
     1
 90
        1
176
     1
 40
179.0
176
     1
 90
        8
176
     1
 62
     7
176
     1
 40
1.0
176
     1
 90
        1
176
     1
 90
        6
176
     1
 90
        2
176
     1
 62
     7
176
     1
 90
        3
176
     1
 90
        0
176
     1
 90
        0
176
     1
290
     0
176
     1
 90
        1
176
     1
 40
0.0
176
     1
 90
        0
176
     1
290
     0
176
     1
290
     1
176
     1
290
     1
176
     1
290
     0
176
     1
290
     0
176
     1
290
     0
176
     1
290
     0
176
     1
290
     0
176
     1
290
     0
176
     1
 90
       50
176
     1
 40
0.0
176
     1
 40
1.0
176
     1
 90
        0
176
     1
 62
    18
420
        0
176
     1
 90
       50
176
     1
 90
        3
176
     1
 62
     5
420
      255
176
     1
290
     0
176
     1
 90
       50
176
     1
 90
       50
176
     1
 90
       50
176
     1
290
     0
176
     1
 90
       50
176
     1
 62
   256
176
     0
 40
1.0
176
     0
 90
        2
176
     1
  1
strokes_ogs.tif
176
     1
290
     0
176
     1
 40
1.0
176
     1
 40
1.0
176
     1
  0
VISUALSTYLE
  5
35
102
{ACAD_REACTORS
330
2A
102
}
330
2A
100
AcDbVisualStyle
  2
Dim
 70
    11
177
     3
291
     1
 70
    58
 90
        2
176
     1
 90
        2
176
     1
 90
        0
176
     1
 90
        0
176
     1
 40
0.6
176
     1
 40
30.0
176
     1
 62
     7
420
 16777215
176
     1
 90
        1
176
     1
 90
        4
176
     1
 62
     7
176
     1
 62
   257
176
     1
 90
        1
176
     1
 90
        1
176
     1
 40
1.0
176
     1
 90
        8
176
     1
 62
     7
176
     1
 40
1.0
176
     1
 90
        1
176
     1
 90
        6
176
     1
 90
        2
176
     1
 62
     7
176
     1
 90
        5
176
     1
 90
        0
176
     1
 90
        0
176
     1
290
     0
176
     1
 90
        1
176
     1
 40
-50.0
176
     1
 90
        0
176
     1
290
     0
176
     1
290
     1
176
     1
290
     1
176
     1
290
     0
176
     1
290
     0
176
     1
290
     0
176
     1
290
     0
176
     1
290
     0
176
     1
290
     0
176
     1
 90
       50
176
     1
 40
0.0
176
     1
 40
1.0
176
     1
 90
        0
176
     1
 62
    18
420
        0
176
     1
 90
       50
176
     1
 90
        3
176
     1
 62
     5
420
      255
176
     1
290
     0
176
     1
 90
       50
176
     1
 90
       50
176
     1
 90
       50
176
     1
290
     0
176
     1
 90
       50
176
     1
 62
   256
176
     0
 40
1.0
176
     0
 90
        2
176
     1
  1
strokes_ogs.tif
176
     1
290
     0
176
     1
 40
1.0
176
     1
 40
1.0
176
     1
  0
VISUALSTYLE
  5
3D
102
{ACAD_REACTORS
330
2A
102
}
330
2A
100
AcDbVisualStyle
  2
EdgeColorOff
 70
    22
177
     3
291
     1
 70
    58
 90
        2
176
     0
 90
        2
176
     0
 90
        0
176
     0
 90
        0
176
     0
 40
0.6
176
     0
 40
30.0
176
     0
 62
     7
420
 16777215
176
     0
 90
        1
176
     0
 90
        4
176
     0
 62
     7
176
     0
 62
   257
176
     0
 90
        1
176
     0
 90
        1
176
     0
 40
1.0
176
     0
 90
        8
176
     2
 62
     7
176
     0
 40
1.0
176
     0
 90
        1
176
     0
 90
        6
176
     0
 90
        2
176
     0
 62
     7
176
     0
 90
        5
176
     0
 90
        0
176
     0
 90
        0
176
     0
290
     0
176
     0
 90
        1
176
     0
 40
0.0
176
     0
 90
        0
176
     0
290
     0
176
     0
290
     1
176
     0
290
     1
176
     0
290
     0
176
     0
290
     0
176
     0
290
     0
176
     0
290
     0
176
     0
290
     0
176
     0
290
     0
176
     0
 90
       50
176
     0
 40
0.0
176
     0
 40
1.0
176
     0
 90
        0
176
     0
 62
    18
420
        0
176
     0
 90
       50
176
     0
 90
        3
176
     0
 62
     5
420
      255
176
     0
290
     0
176
     0
 90
       50
176
     0
 90
       50
176
     0
 90
       50
176
     0
290
     0
176
     0
 90
       50
176
     0
 62
   256
176
     0
 40
1.0
176
     0
 90
        2
176
     0
  1
strokes_ogs.tif
176
     0
290
     0
176
     0
 40
1.0
176
     0
 40
1.0
176
     0
  0
VISUALSTYLE
  5
39
102
{ACAD_REACTORS
330
2A
102
}
330
2A
100
AcDbVisualStyle
  2
Facepattern
 70
    15
177
     3
291
     1
 70
    58
 90
        2
176
     1
 90
        2
176
     1
 90
        0
176
     1
 90
        0
176
     1
 40
0.6
176
     1
 40
30.0
176
     1
 62
     7
420
 16777215
176
     1
 90
        1
176
     1
 90
        4
176
     1
 62
     7
176
     1
 62
   257
176
     1
 90
        1
176
     1
 90
        1
176
     1
 40
1.0
176
     1
 90
        8
176
     1
 62
     7
176
     1
 40
1.0
176
     1
 90
        1
176
     1
 90
        6
176
     1
 90
        2
176
     1
 62
     7
176
     1
 90
        5
176
     1
 90
        0
176
     1
 90
        0
176
     1
290
     0
176
     1
 90
        1
176
     1
 40
0.0
176
     1
 90
        0
176
     1
290
     0
176
     1
290
     1
176
     1
290
     1
176
     1
290
     0
176
     1
290
     0
176
     1
290
     0
176
     1
290
     0
176
     1
290
     0
176
     1
290
     0
176
     1
 90
       50
176
     1
 40
0.0
176
     1
 40
1.0
176
     1
 90
        0
176
     1
 62
    18
420
        0
176
     1
 90
       50
176
     1
 90
        3
176
     1
 62
     5
420
      255
176
     1
290
     0
176
     1
 90
       50
176
     1
 90
       50
176
     1
 90
       50
176
     1
290
     0
176
     1
 90
       50
176
     1
 62
   256
176
     0
 40
1.0
176
     0
 90
        2
176
     1
  1
strokes_ogs.tif
176
     1
290
     0
176
     1
 40
1.0
176
     1
 40
1.0
176
     1
  0
VISUALSTYLE
  5
2B
102
{ACAD_REACTORS
330
2A
102
}
330
2A
100
AcDbVisualStyle
  2
Flat
 70
     0
177
     3
291
     1
 70
    58
 90
        2
176
     1
 90
        1
176
     1
 90
        1
176
     1
 90
        2
176
     1
 40
0.6
176
     1
 40
30.0
176
     1
 62
     7
420
 16777215
176
     1
 90
        0
176
     1
 90
        0
176
     1
 62
     7
176
     1
 62
   257
176
     1
 90
        1
176
     1
 90
        1
176
     1
 40
1.0
176
     1
 90
        8
176
     1
 62
     7
176
     1
 40
1.0
176
     1
 90
        1
176
     1
 90
        6
176
     1
 90
        2
176
     1
 62
     7
176
     1
 90
        5
176
     1
 90
        0
176
     1
 90
        0
176
     1
290
     0
176
     1
 90
       13
176
     1
 40
0.0
176
     1
 90
        0
176
     1
290
     0
176
     1
290
     1
176
     1
290
     1
176
     1
290
     0
176
     1
290
     0
176
     1
290
     0
176
     1
290
     0
176
     1
290
     0
176
     1
290
     0
176
     1
 90
       50
176
     1
 40
0.0
176
     1
 40
1.0
176
     1
 90
        0
176
     1
 62
    18
420
        0
176
     1
 90
       50
176
     1
 90
        3
176
     1
 62
     5
420
      255
176
     1
290
     0
176
     1
 90
       50
176
     1
 90
       50
176
     1
 90
       50
176
     1
290
     0
176
     1
 90
       50
176
     1
 62
   256
176
     0
 40
1.0
176
     0
 90
        2
176
     1
  1
strokes_ogs.tif
176
     1
290
     0
176
     1
 40
1.0
176
     1
 40
1.0
176
     1
  0
VISUALSTYLE
  5
2C
102
{ACAD_REACTORS
330
2A
102
}
330
2A
100
AcDbVisualStyle
  2
FlatWithEdges
 70
     1
177
     3
291
     1
 70
    58
 90
        2
176
     1
 90
        1
176
     1
 90
        1
176
     1
 90
        2
176
     1
 40
0.6
176
     1
 40
30.0
176
     1
 62
     7
420
 16777215
176
     1
 90
        1
176
     1
 90
        0
176
     1
 62
     7
176
     1
 62
   257
176
     1
 90
        1
176
     1
 90
        1
176
     1
 40
1.0
176
     1
 90
        0
176
     1
 62
   257
176
     1
 40
1.0
176
     1
 90
        1
176
     1
 90
        6
176
     1
 90
        2
176
     1
 62
     7
176
     1
 90
        5
176
     1
 90
        0
176
     1
 90
        0
176
     1
290
     0
176
     1
 90
       13
176
     1
 40
0.0
176
     1
 90
        0
176
     1
290
     0
176
     1
290
     1
176
     1
290
     1
176
     1
290
     0
176
     1
290
     0
176
     1
290
     0
176
     1
290
     0
176
     1
290
     0
176
     1
290
     0
176
     1
 90
       50
176
     1
 40
0.0
176
     1
 40
1.0
176
     1
 90
        0
176
     1
 62
    18
420
        0
176
     1
 90
       50
176
     1
 90
        3
176
     1
 62
     5
420
      255
176
     1
290
     0
176
     1
 90
       50
176
     1
 90
       50
176
     1
 90
       50
176
     1
290
     0
176
     1
 90
       50
176
     1
 62
   256
176
     0
 40
1.0
176
     0
 90
        2
176
     1
  1
strokes_ogs.tif
176
     1
290
     0
176
     1
 40
1.0
176
     1
 40
1.0
176
     1
  0
VISUALSTYLE
  5
2D
102
{ACAD_REACTORS
330
2A
102
}
330
2A
100
AcDbVisualStyle
  2
Gouraud
 70
     2
177
     3
291
     1
 70
    58
 90
        2
176
     1
 90
        2
176
     1
 90
        1
176
     1
 90
        2
176
     1
 40
0.6
176
     1
 40
30.0
176
     1
 62
     7
420
 16777215
176
     1
 90
        0
176
     1
 90
        0
176
     1
 62
     7
176
     1
 62
   257
176
     1
 90
        1
176
     1
 90
        1
176
     1
 40
1.0
176
     1
 90
        0
176
     1
 62
     7
176
     1
 40
1.0
176
     1
 90
        1
176
     1
 90
        6
176
     1
 90
        2
176
     1
 62
     7
176
     1
 90
        5
176
     1
 90
        0
176
     1
 90
        0
176
     1
290
     0
176
     1
 90
       13
176
     1
 40
0.0
176
     1
 90
        0
176
     1
290
     0
176
     1
290
     1
176
     1
290
     1
176
     1
290
     0
176
     1
290
     0
176
     1
290
     0
176
     1
290
     0
176
     1
290
     0
176
     1
290
     0
176
     1
 90
       50
176
     1
 40
0.0
176
     1
 40
1.0
176
     1
 90
        0
176
     1
 62
    18
420
        0
176
     1
 90
       50
176
     1
 90
        3
176
     1
 62
     5
420
      255
176
     1
290
     0
176
     1
 90
       50
176
     1
 90
       50
176
     1
 90
       50
176
     1
290
     0
176
     1
 90
       50
176
     1
 62
   256
176
     0
 40
1.0
176
     0
 90
        2
176
     1
  1
strokes_ogs.tif
176
     1
290
     0
176
     1
 40
1.0
176
     1
 40
1.0
176
     1
  0
VISUALSTYLE
  5
2E
102
{ACAD_REACTORS
330
2A
102
}
330
2A
100
AcDbVisualStyle
  2
GouraudWithEdges
 70
     3
177
     3
291
     1
 70
    58
 90
        2
176
     1
 90
        2
176
     1
 90
        1
176
     1
 90
        2
176
     1
 40
0.6
176
     1
 40
30.0
176
     1
 62
     7
420
 16777215
176
     1
 90
        1
176
     1
 90
        0
176
     1
 62
     7
176
     1
 62
   257
176
     1
 90
        1
176
     1
 90
        1
176
     1
 40
1.0
176
     1
 90
        0
176
     1
 62
   257
176
     1
 40
1.0
176
     1
 90
        1
176
     1
 90
        6
176
     1
 90
        2
176
     1
 62
     7
176
     1
 90
        5
176
     1
 90
        0
176
     1
 90
        0
176
     1
290
     0
176
     1
 90
       13
176
     1
 40
0.0
176
     1
 90
        0
176
     1
290
     0
176
     1
290
     1
176
     1
290
     1
176
     1
290
     0
176
     1
290
     0
176
     1
290
     0
176
     1
290
     0
176
     1
290
     0
176
     1
290
     0
176
     1
 90
       50
176
     1
 40
0.0
176
     1
 40
1.0
176
     1
 90
        0
176
     1
 62
    18
420
        0
176
     1
 90
       50
176
     1
 90
        3
176
     1
 62
     5
420
      255
176
     1
290
     0
176
     1
 90
       50
176
     1
 90
       50
176
     1
 90
       50
176
     1
290
     0
176
     1
 90
       50
176
     1
 62
   256
176
     0
 40
1.0
176
     0
 90
        2
176
     1
  1
strokes_ogs.tif
176
     1
290
     0
176
     1
 40
1.0
176
     1
 40
1.0
176
     1
  0
VISUALSTYLE
  5
31
102
{ACAD_REACTORS
330
2A
102
}
330
2A
100
AcDbVisualStyle
  2
Hidden
 70
     6
177
     3
291
     0
 70
    58
 90
        1
176
     1
 90
        2
176
     1
 90
        2
176
     1
 90
        0
176
     1
 40
0.6
176
     1
 40
30.0
176
     1
 62
     7
420
 16777215
176
     1
 90
        2
176
     1
 90
        2
176
     1
 62
     7
176
     1
 62
   257
176
     1
 90
        2
176
     1
 90
        1
176
     1
 40
40.0
176
     1
 90
        0
176
     1
 62
   257
176
     1
 40
1.0
176
     1
 90
        1
176
     1
 90
        6
176
     1
 90
        2
176
     1
 62
     7
176
     1
 90
        3
176
     1
 90
        0
176
     1
 90
        0
176
     1
290
     0
176
     1
 90
        1
176
     1
 40
0.0
176
     1
 90
        0
176
     1
290
     0
176
     1
290
     1
176
     1
290
     1
176
     1
290
     0
176
     1
290
     0
176
     1
290
     0
176
     1
290
     0
176
     1
290
     0
176
     1
290
     0
176
     1
 90
       50
176
     1
 40
0.0
176
     1
 40
1.0
176
     1
 90
        0
176
     1
 62
    18
420
        0
176
     1
 90
       50
176
     1
 90
        3
176
     1
 62
     5
420
      255
176
     1
290
     0
176
     1
 90
       50
176
     1
 90
       50
176
     1
 90
       50
176
     1
290
     0
176
     1
 90
       50
176
     1
 62
   256
176
     0
 40
1.0
176
     0
 90
        2
176
     1
  1
strokes_ogs.tif
176
     1
290
     0
176
     1
 40
1.0
176
     1
 40
1.0
176
     1
  0
VISUALSTYLE
  5
3B
102
{ACAD_REACTORS
330
2A
102
}
330
2A
100
AcDbVisualStyle
  2
JitterOff
 70
    20
177
     3
291
     1
 70
    58
 90
        2
176
     0
 90
        2
176
     0
 90
        0
176
     0
 90
        0
176
     0
 40
0.6
176
     0
 40
30.0
176
     0
 62
     7
420
 16777215
176
     0
 90
        1
176
     0
 90
        4
176
     0
 62
     7
176
     0
 62
   257
176
     0
 90
        1
176
     0
 90
        1
176
     0
 40
1.0
176
     0
 90
       10
176
     2
 62
     7
176
     0
 40
1.0
176
     0
 90
        1
176
     0
 90
        6
176
     0
 90
        2
176
     0
 62
     7
176
     0
 90
        5
176
     0
 90
        0
176
     0
 90
        0
176
     0
290
     0
176
     0
 90
        1
176
     0
 40
0.0
176
     0
 90
        0
176
     0
290
     0
176
     0
290
     1
176
     0
290
     1
176
     0
290
     0
176
     0
290
     0
176
     0
290
     0
176
     0
290
     0
176
     0
290
     0
176
     0
290
     0
176
     0
 90
       50
176
     0
 40
0.0
176
     0
 40
1.0
176
     0
 90
        0
176
     0
 62
    18
420
        0
176
     0
 90
       50
176
     0
 90
        3
176
     0
 62
     5
420
      255
176
     0
290
     0
176
     0
 90
       50
176
     0
 90
       50
176
     0
 90
       50
176
     0
290
     0
176
     0
 90
       50
176
     0
 62
   256
176
     0
 40
1.0
176
     0
 90
        2
176
     0
  1
strokes_ogs.tif
176
     0
290
     0
176
     0
 40
1.0
176
     0
 40
1.0
176
     0
  0
VISUALSTYLE
  5
38
102
{ACAD_REACTORS
330
2A
102
}
330
2A
100
AcDbVisualStyle
  2
Linepattern
 70
    14
177
     3
291
     1
 70
    58
 90
        2
176
     1
 90
        2
176
     1
 90
        0
176
     1
 90
        0
176
     1
 40
0.6
176
     1
 40
30.0
176
     1
 62
     7
420
 16777215
176
     1
 90
        1
176
     1
 90
        4
176
     1
 62
     7
176
     1
 62
   257
176
     1
 90
        7
176
     1
 90
        7
176
     1
 40
1.0
176
     1
 90
        8
176
     1
 62
     7
176
     1
 40
1.0
176
     1
 90
        1
176
     1
 90
        6
176
     1
 90
        2
176
     1
 62
     7
176
     1
 90
        5
176
     1
 90
        0
176
     1
 90
        0
176
     1
290
     0
176
     1
 90
        1
176
     1
 40
0.0
176
     1
 90
        0
176
     1
290
     0
176
     1
290
     1
176
     1
290
     1
176
     1
290
     0
176
     1
290
     0
176
     1
290
     0
176
     1
290
     0
176
     1
290
     0
176
     1
290
     0
176
     1
 90
       50
176
     1
 40
0.0
176
     1
 40
1.0
176
     1
 90
        0
176
     1
 62
    18
420
        0
176
     1
 90
       50
176
     1
 90
        3
176
     1
 62
     5
420
      255
176
     1
290
     0
176
     1
 90
       50
176
     1
 90
       50
176
     1
 90
       50
176
     1
290
     0
176
     1
 90
       50
176
     1
 62
   256
176
     0
 40
1.0
176
     0
 90
        2
176
     1
  1
strokes_ogs.tif
176
     1
290
     0
176
     1
 40
1.0
176
     1
 40
1.0
176
     1
  0
VISUALSTYLE
  5
3C
102
{ACAD_REACTORS
330
2A
102
}
330
2A
100
AcDbVisualStyle
  2
OverhangOff
 70
    21
177
     3
291
     1
 70
    58
 90
        2
176
     0
 90
        2
176
     0
 90
        0
176
     0
 90
        0
176
     0
 40
0.6
176
     0
 40
30.0
176
     0
 62
     7
420
 16777215
176
     0
 90
        1
176
     0
 90
        4
176
     0
 62
     7
176
     0
 62
   257
176
     0
 90
        1
176
     0
 90
        1
176
     0
 40
1.0
176
     0
 90
        9
176
     2
 62
     7
176
     0
 40
1.0
176
     0
 90
        1
176
     0
 90
        6
176
     0
 90
        2
176
     0
 62
     7
176
     0
 90
        5
176
     0
 90
        0
176
     0
 90
        0
176
     0
290
     0
176
     0
 90
        1
176
     0
 40
0.0
176
     0
 90
        0
176
     0
290
     0
176
     0
290
     1
176
     0
290
     1
176
     0
290
     0
176
     0
290
     0
176
     0
290
     0
176
     0
290
     0
176
     0
290
     0
176
     0
290
     0
176
     0
 90
       50
176
     0
 40
0.0
176
     0
 40
1.0
176
     0
 90
        0
176
     0
 62
    18
420
        0
176
     0
 90
       50
176
     0
 90
        3
176
     0
 62
     5
420
      255
176
     0
290
     0
176
     0
 90
       50
176
     0
 90
       50
176
     0
 90
       50
176
     0
290
     0
176
     0
 90
       50
176
     0
 62
   256
176
     0
 40
1.0
176
     0
 90
        2
176
     0
  1
strokes_ogs.tif
176
     0
290
     0
176
     0
 40
1.0
176
     0
 40
1.0
176
     0
  0
VISUALSTYLE
  5
33
102
{ACAD_REACTORS
330
2A
102
}
330
2A
100
AcDbVisualStyle
  2
Realistic
 70
     8
177
     3
291
     0
 70
    58
 90
        2
176
     1
 90
        3
176
     1
 90
        0
176
     1
 90
        2
176
     1
 40
0.6
176
     1
 40
30.0
176
     1
 62
     7
420
 16777215
176
     1
 90
        0
176
     1
 90
        0
176
     1
 62
     7
176
     1
 62
   257
176
     1
 90
        1
176
     1
 90
        1
176
     1
 40
1.0
176
     1
 90
        8
176
     1
 62
   257
176
     1
 40
1.0
176
     1
 90
        1
176
     1
 90
        6
176
     1
 90
        2
176
     1
 62
     7
176
     1
 90
        3
176
     1
 90
        0
176
     1
 90
        0
176
     1
290
     0
176
     1
 90
       13
176
     1
 40
0.0
176
     1
 90
        0
176
     1
290
     0
176
     1
290
     1
176
     1
290
     1
176
     1
290
     0
176
     1
290
     0
176
     1
290
     0
176
     1
290
     0
176
     1
290
     0
176
     1
290
     0
176
     1
 90
       50
176
     1
 40
0.0
176
     1
 40
1.0
176
     1
 90
        0
176
     1
 62
    18
420
        0
176
     1
 90
       50
176
     1
 90
        3
176
     1
 62
     5
420
      255
176
     1
290
     0
176
     1
 90
       50
176
     1
 90
       50
176
     1
 90
       50
176
     1
290
     0
176
     1
 90
       50
176
     1
 62
   256
176
     0
 40
1.0
176
     0
 90
        2
176
     1
  1
strokes_ogs.tif
176
     1
290
     0
176
     1
 40
1.0
176
     1
 40
1.0
176
     1
  0
VISUALSTYLE
  5
42
102
{ACAD_REACTORS
330
2A
102
}
330
2A
100
AcDbVisualStyle
  2
Shaded
 70
    27
177
     3
291
     0
 70
    58
 90
        2
176
     1
 90
        2
176
     1
 90
        1
176
     1
 90
        2
176
     1
 40
0.6
176
     1
 40
30.0
176
     1
 62
     7
420
 16777215
176
     1
 90
        0
176
     1
 90
        4
176
     1
 62
     7
176
     1
 62
   257
176
     1
 90
        1
176
     1
 90
        1
176
     1
 40
1.0
176
     1
 90
        8
176
     1
 62
   257
176
     1
 40
1.0
176
     1
 90
        1
176
     1
 90
        6
176
     1
 90
        2
176
     1
 62
     8
420
  7895160
176
     1
 90
        3
176
     1
 90
        0
176
     1
 90
        0
176
     1
290
     0
176
     1
 90
        5
176
     1
 40
0.0
176
     1
 90
        0
176
     1
290
     0
176
     1
290
     1
176
     1
290
     1
176
     1
290
     0
176
     1
290
     0
176
     1
290
     0
176
     1
290
     0
176
     1
290
     0
176
     1
290
     0
176
     1
 90
       50
176
     1
 40
0.0
176
     1
 40
1.0
176
     1
 90
        0
176
     1
 62
    18
420
        0
176
     1
 90
       50
176
     1
 90
        3
176
     1
 62
     5
420
      255
176
     1
290
     0
176
     1
 90
       50
176
     1
 90
       50
176
     1
 90
       50
176
     1
290
     0
176
     1
 90
       50
176
     1
 62
   256
176
     0
 40
1.0
176
     0
 90
        2
176
     1
  1
strokes_ogs.tif
176
     1
290
     0
176
     1
 40
1.0
176
     1
 40
1.0
176
     1
  0
VISUALSTYLE
  5
41
102
{ACAD_REACTORS
330
2A
102
}
330
2A
100
AcDbVisualStyle
  2
Shaded with edges
 70
    26
177
     3
291
     0
 70
    58
 90
        2
176
     1
 90
        2
176
     1
 90
        1
176
     1
 90
        2
176
     1
 40
0.6
176
     1
 40
30.0
176
     1
 62
     7
420
 16777215
176
     1
 90
        1
176
     1
 90
       10
176
     1
 62
     7
176
     1
 62
   257
176
     1
 90
        2
176
     1
 90
        1
176
     1
 40
1.0
176
     1
 90
        8
176
     1
 62
   257
176
     1
 40
1.0
176
     1
 90
        1
176
     1
 90
        6
176
     1
 90
        2
176
     1
 62
     7
176
     1
 90
        3
176
     1
 90
        0
176
     1
 90
        0
176
     1
290
     0
176
     1
 90
        5
176
     1
 40
0.0
176
     1
 90
        0
176
     1
290
     0
176
     1
290
     1
176
     1
290
     1
176
     1
290
     0
176
     1
290
     0
176
     1
290
     0
176
     1
290
     0
176
     1
290
     0
176
     1
290
     0
176
     1
 90
       50
176
     1
 40
0.0
176
     1
 40
1.0
176
     1
 90
        0
176
     1
 62
    18
420
        0
176
     1
 90
       50
176
     1
 90
        3
176
     1
 62
     5
420
      255
176
     1
290
     0
176
     1
 90
       50
176
     1
 90
       50
176
     1
 90
       50
176
     1
290
     0
176
     1
 90
       50
176
     1
 62
   256
176
     0
 40
1.0
176
     0
 90
        2
176
     1
  1
strokes_ogs.tif
176
     1
290
     0
176
     1
 40
1.0
176
     1
 40
1.0
176
     1
  0
VISUALSTYLE
  5
3E
102
{ACAD_REACTORS
330
2A
102
}
330
2A
100
AcDbVisualStyle
  2
Shades of Gray
 70
    23
177
     3
291
     0
 70
    58
 90
        2
176
     1
 90
        2
176
     1
 90
        3
176
     1
 90
        0
176
     1
 40
0.6
176
     1
 40
30.0
176
     1
 62
     7
420
 16777215
176
     1
 90
        2
176
     1
 90
        2
176
     1
 62
     7
176
     1
 62
     7
176
     1
 90
        1
176
     1
 90
        1
176
     1
 40
40.0
176
     1
 90
        8
176
     1
 62
     7
176
     1
 40
1.0
176
     1
 90
        1
176
     1
 90
        6
176
     1
 90
        2
176
     1
 62
     7
176
     1
 90
        3
176
     1
 90
        0
176
     1
 90
        0
176
     1
290
     0
176
     1
 90
        1
176
     1
 40
0.0
176
     1
 90
        0
176
     1
290
     0
176
     1
290
     1
176
     1
290
     1
176
     1
290
     0
176
     1
290
     0
176
     1
290
     0
176
     1
290
     0
176
     1
290
     0
176
     1
290
     0
176
     1
 90
       50
176
     1
 40
0.0
176
     1
 40
1.0
176
     1
 90
        0
176
     1
 62
    18
420
        0
176
     1
 90
       50
176
     1
 90
        3
176
     1
 62
     5
420
      255
176
     1
290
     0
176
     1
 90
       50
176
     1
 90
       50
176
     1
 90
       50
176
     1
290
     0
176
     1
 90
       50
176
     1
 62
   256
176
     0
 40
1.0
176
     0
 90
        2
176
     1
  1
strokes_ogs.tif
176
     1
290
     0
176
     1
 40
1.0
176
     1
 40
1.0
176
     1
  0
VISUALSTYLE
  5
3F
102
{ACAD_REACTORS
330
2A
102
}
330
2A
100
AcDbVisualStyle
  2
Sketchy
 70
    24
177
     3
291
     0
 70
    58
 90
        1
176
     1
 90
        2
176
     1
 90
        2
176
     1
 90
        0
176
     1
 40
0.6
176
     1
 40
30.0
176
     1
 62
     7
420
 16777215
176
     1
 90
        2
176
     1
 90
        2
176
     1
 62
     7
176
     1
 62
     7
176
     1
 90
        1
176
     1
 90
        1
176
     1
 40
40.0
176
     1
 90
       11
176
     1
 62
     7
176
     1
 40
1.0
176
     1
 90
        1
176
     1
 90
        6
176
     1
 90
        2
176
     1
 62
     7
176
     1
 90
        6
176
     1
 90
        0
176
     1
 90
        0
176
     1
290
     0
176
     1
 90
        1
176
     1
 40
0.0
176
     1
 90
        0
176
     1
290
     0
176
     1
290
     1
176
     1
290
     1
176
     1
290
     0
176
     1
290
     0
176
     1
290
     0
176
     1
290
     0
176
     1
290
     0
176
     1
290
     0
176
     1
 90
       50
176
     1
 40
0.0
176
     1
 40
1.0
176
     1
 90
        0
176
     1
 62
    18
420
        0
176
     1
 90
       50
176
     1
 90
        3
176
     1
 62
     5
420
      255
176
     1
290
     0
176
     1
 90
       50
176
     1
 90
       50
176
     1
 90
       50
176
     1
290
     0
176
     1
 90
       50
176
     1
 62
   256
176
     0
 40
1.0
176
     0
 90
        2
176
     1
  1
strokes_ogs.tif
176
     1
290
     0
176
     1
 40
1.0
176
     1
 40
1.0
176
     1
  0
VISUALSTYLE
  5
37
102
{ACAD_REACTORS
330
2A
102
}
330
2A
100
AcDbVisualStyle
  2
Thicken
 70
    13
177
     3
291
     1
 70
    58
 90
        2
176
     1
 90
        2
176
     1
 90
        0
176
     1
 90
        0
176
     1
 40
0.6
176
     1
 40
30.0
176
     1
 62
     7
420
 16777215
176
     1
 90
        1
176
     1
 90
        4
176
     1
 62
     7
176
     1
 62
   257
176
     1
 90
        1
176
     1
 90
        1
176
     1
 40
1.0
176
     1
 90
       12
176
     1
 62
     7
176
     1
 40
1.0
176
     1
 90
        1
176
     1
 90
        6
176
     1
 90
        2
176
     1
 62
     7
176
     1
 90
        5
176
     1
 90
        0
176
     1
 90
        0
176
     1
290
     0
176
     1
 90
        1
176
     1
 40
0.0
176
     1
 90
        0
176
     1
290
     0
176
     1
290
     1
176
     1
290
     1
176
     1
290
     0
176
     1
290
     0
176
     1
290
     0
176
     1
290
     0
176
     1
290
     0
176
     1
290
     0
176
     1
 90
       50
176
     1
 40
0.0
176
     1
 40
1.0
176
     1
 90
        0
176
     1
 62
    18
420
        0
176
     1
 90
       50
176
     1
 90
        3
176
     1
 62
     5
420
      255
176
     1
290
     0
176
     1
 90
       50
176
     1
 90
       50
176
     1
 90
       50
176
     1
290
     0
176
     1
 90
       50
176
     1
 62
   256
176
     0
 40
1.0
176
     0
 90
        2
176
     1
  1
strokes_ogs.tif
176
     1
290
     0
176
     1
 40
1.0
176
     1
 40
1.0
176
     1
  0
VISUALSTYLE
  5
30
102
{ACAD_REACTORS
330
2A
102
}
330
2A
100
AcDbVisualStyle
  2
Wireframe
 70
     5
177
     3
291
     0
 70
    58
 90
        0
176
     1
 90
        2
176
     1
 90
        0
176
     1
 90
        0
176
     1
 40
0.6
176
     1
 40
30.0
176
     1
 62
     7
420
 16777215
176
     1
 90
        1
176
     1
 90
        4
176
     1
 62
     7
176
     1
 62
   257
176
     1
 90
        1
176
     1
 90
        1
176
     1
 40
1.0
176
     1
 90
        0
176
     1
 62
   257
176
     1
 40
1.0
176
     1
 90
        1
176
     1
 90
        6
176
     1
 90
        2
176
     1
 62
     7
176
     1
 90
        3
176
     1
 90
        0
176
     1
 90
        0
176
     1
290
     0
176
     1
 90
        1
176
     1
 40
0.0
176
     1
 90
        0
176
     1
290
     0
176
     1
290
     1
176
     1
290
     1
176
     1
290
     0
176
     1
290
     0
176
     1
290
     0
176
     1
290
     0
176
     1
290
     0
176
     1
290
     0
176
     1
 90
       50
176
     1
 40
0.0
176
     1
 40
1.0
176
     1
 90
        0
176
     1
 62
    18
420
        0
176
     1
 90
       50
176
     1
 90
        3
176
     1
 62
     5
420
      255
176
     1
290
     0
176
     1
 90
       50
176
     1
 90
       50
176
     1
 90
       50
176
     1
290
     0
176
     1
 90
       50
176
     1
 62
   256
176
     0
 40
1.0
176
     0
 90
        2
176
     1
  1
strokes_ogs.tif
176
     1
290
     0
176
     1
 40
1.0
176
     1
 40
1.0
176
     1
  0
VISUALSTYLE
  5
40
102
{ACAD_REACTORS
330
2A
102
}
330
2A
100
AcDbVisualStyle
  2
X-Ray
 70
    25
177
     3
291
     0
 70
    58
 90
        2
176
     1
 90
        2
176
     1
 90
        1
176
     1
 90
        1
176
     1
 40
0.5
176
     1
 40
30.0
176
     1
 62
     7
420
 16777215
176
     1
 90
        1
176
     1
 90
        0
176
     1
 62
     7
176
     1
 62
   257
176
     1
 90
        1
176
     1
 90
        1
176
     1
 40
1.0
176
     1
 90
        8
176
     1
 62
     7
176
     1
 40
1.0
176
     1
 90
        1
176
     1
 90
        6
176
     1
 90
        2
176
     1
 62
     7
176
     1
 90
        3
176
     1
 90
        0
176
     1
 90
        0
176
     1
290
     0
176
     1
 90
       13
176
     1
 40
0.0
176
     1
 90
        0
176
     1
290
     0
176
     1
290
     1
176
     1
290
     1
176
     1
290
     0
176
     1
290
     0
176
     1
290
     0
176
     1
290
     0
176
     1
290
     0
176
     1
290
     0
176
     1
 90
       50
176
     1
 40
0.0
176
     1
 40
1.0
176
     1
 90
        0
176
     1
 62
    18
420
        0
176
     1
 90
       50
176
     1
 90
        3
176
     1
 62
     5
420
      255
176
     1
290
     0
176
     1
 90
       50
176
     1
 90
       50
176
     1
 90
       50
176
     1
290
     0
176
     1
 90
       50
176
     1
 62
   256
176
     0
 40
1.0
176
     0
 90
        2
176
     1
  1
strokes_ogs.tif
176
     1
290
     0
176
     1
 40
1.0
176
     1
 40
1.0
176
     1
  0
DICTIONARYVAR
  5
457
102
{ACAD_REACTORS
330
456
102
}
330
456
100
DictionaryVariables
280
     0
  1
1:1
  0
DICTIONARYVAR
  5
45C
102
{ACAD_REACTORS
330
456
102
}
330
456
100
DictionaryVariables
280
     0
  1
Standard
  0
DICTIONARYVAR
  5
45B
102
{ACAD_REACTORS
330
456
102
}
330
456
100
DictionaryVariables
280
     0
  1
Standard
  0
DICTIONARYVAR
  5
45F
102
{ACAD_REACTORS
330
456
102
}
330
456
100
DictionaryVariables
280
     0
  1
6.000000
  0
DICTIONARY
  5
458
330
6A
100
AcDbDictionary
280
     1
281
     1
  3
ACAD_ROUNDTRIP_2008_TABLESTYLE_CELLSTYLEMAP
360
459
  0
CELLSTYLEMAP
  5
459
102
{ACAD_REACTORS
330
458
102
}
330
458
100
AcDbCellStyleMap
 90
        3
300
CELLSTYLE
  1
TABLEFORMAT_BEGIN
 90
        5
170
     1
 91
        0
 92
    32768
 62
   257
 93
        1
300
CONTENTFORMAT
  1
CONTENTFORMAT_BEGIN
 90
        0
 91
        0
 92
        4
 93
        0
300

 40
0.0
140
1.0
 94
        5
 62
     0
340
11
144
6.0
309
CONTENTFORMAT_END
171
     1
301
MARGIN
  1
CELLMARGIN_BEGIN
 40
1.5
 40
1.5
 40
1.5
 40
1.5
 40
1.5
 40
1.5
309
CELLMARGIN_END
 94
        6
 95
        1
302
GRIDFORMAT
  1
GRIDFORMAT_BEGIN
 90
        0
 91
        1
 62
     0
 92
       -2
340
14
 93
        0
 40
0.045
309
GRIDFORMAT_END
 95
        2
302
GRIDFORMAT
  1
GRIDFORMAT_BEGIN
 90
        0
 91
        1
 62
     0
 92
       -2
340
14
 93
        0
 40
0.045
309
GRIDFORMAT_END
 95
        4
302
GRIDFORMAT
  1
GRIDFORMAT_BEGIN
 90
        0
 91
        1
 62
     0
 92
       -2
340
14
 93
        0
 40
0.045
309
GRIDFORMAT_END
 95
        8
302
GRIDFORMAT
  1
GRIDFORMAT_BEGIN
 90
        0
 91
        1
 62
     0
 92
       -2
340
14
 93
        0
 40
0.045
309
GRIDFORMAT_END
 95
       16
302
GRIDFORMAT
  1
GRIDFORMAT_BEGIN
 90
        0
 91
        1
 62
     0
 92
       -2
340
14
 93
        0
 40
0.045
309
GRIDFORMAT_END
 95
       32
302
GRIDFORMAT
  1
GRIDFORMAT_BEGIN
 90
        0
 91
        1
 62
     0
 92
       -2
340
14
 93
        0
 40
0.045
309
GRIDFORMAT_END
309
TABLEFORMAT_END
  1
CELLSTYLE_BEGIN
 90
        1
 91
        1
300
_TITLE
309
CELLSTYLE_END
300
CELLSTYLE
  1
TABLEFORMAT_BEGIN
 90
        5
170
     1
 91
        0
 92
        0
 62
   257
 93
        1
300
CONTENTFORMAT
  1
CONTENTFORMAT_BEGIN
 90
        0
 91
        0
 92
        4
 93
        0
300

 40
0.0
140
1.0
 94
        5
 62
     0
340
11
144
4.5
309
CONTENTFORMAT_END
171
     1
301
MARGIN
  1
CELLMARGIN_BEGIN
 40
1.5
 40
1.5
 40
1.5
 40
1.5
 40
1.5
 40
1.5
309
CELLMARGIN_END
 94
        6
 95
        1
302
GRIDFORMAT
  1
GRIDFORMAT_BEGIN
 90
        0
 91
        1
 62
     0
 92
       -2
340
14
 93
        0
 40
0.045
309
GRIDFORMAT_END
 95
        2
302
GRIDFORMAT
  1
GRIDFORMAT_BEGIN
 90
        0
 91
        1
 62
     0
 92
       -2
340
14
 93
        0
 40
0.045
309
GRIDFORMAT_END
 95
        4
302
GRIDFORMAT
  1
GRIDFORMAT_BEGIN
 90
        0
 91
        1
 62
     0
 92
       -2
340
14
 93
        0
 40
0.045
309
GRIDFORMAT_END
 95
        8
302
GRIDFORMAT
  1
GRIDFORMAT_BEGIN
 90
        0
 91
        1
 62
     0
 92
       -2
340
14
 93
        0
 40
0.045
309
GRIDFORMAT_END
 95
       16
302
GRIDFORMAT
  1
GRIDFORMAT_BEGIN
 90
        0
 91
        1
 62
     0
 92
       -2
340
14
 93
        0
 40
0.045
309
GRIDFORMAT_END
 95
       32
302
GRIDFORMAT
  1
GRIDFORMAT_BEGIN
 90
        0
 91
        1
 62
     0
 92
       -2
340
14
 93
        0
 40
0.045
309
GRIDFORMAT_END
309
TABLEFORMAT_END
  1
CELLSTYLE_BEGIN
 90
        2
 91
        1
300
_HEADER
309
CELLSTYLE_END
300
CELLSTYLE
  1
TABLEFORMAT_BEGIN
 90
        5
170
     1
 91
        0
 92
        0
 62
   257
 93
        1
300
CONTENTFORMAT
  1
CONTENTFORMAT_BEGIN
 90
        0
 91
        0
 92
        4
 93
        0
300

 40
0.0
140
1.0
 94
        2
 62
     0
340
11
144
4.5
309
CONTENTFORMAT_END
171
     1
301
MARGIN
  1
CELLMARGIN_BEGIN
 40
1.5
 40
1.5
 40
1.5
 40
1.5
 40
1.5
 40
1.5
309
CELLMARGIN_END
 94
        6
 95
        1
302
GRIDFORMAT
  1
GRIDFORMAT_BEGIN
 90
        0
 91
        1
 62
     0
 92
       -2
340
14
 93
        0
 40
0.045
309
GRIDFORMAT_END
 95
        2
302
GRIDFORMAT
  1
GRIDFORMAT_BEGIN
 90
        0
 91
        1
 62
     0
 92
       -2
340
14
 93
        0
 40
0.045
309
GRIDFORMAT_END
 95
        4
302
GRIDFORMAT
  1
GRIDFORMAT_BEGIN
 90
        0
 91
        1
 62
     0
 92
       -2
340
14
 93
        0
 40
0.045
309
GRIDFORMAT_END
 95
        8
302
GRIDFORMAT
  1
GRIDFORMAT_BEGIN
 90
        0
 91
        1
 62
     0
 92
       -2
340
14
 93
        0
 40
0.045
309
GRIDFORMAT_END
 95
       16
302
GRIDFORMAT
  1
GRIDFORMAT_BEGIN
 90
        0
 91
        1
 62
     0
 92
       -2
340
14
 93
        0
 40
0.045
309
GRIDFORMAT_END
 95
       32
302
GRIDFORMAT
  1
GRIDFORMAT_BEGIN
 90
        0
 91
        1
 62
     0
 92
       -2
340
14
 93
        0
 40
0.045
309
GRIDFORMAT_END
309
TABLEFORMAT_END
  1
CELLSTYLE_BEGIN
 90
        3
 91
        2
300
_DATA
309
CELLSTYLE_END
  0
ENDSEC
  0
EOF
